PrimaNota.ru - самый крупный в мире бесплатный архив песенных текстов, аккордов, табулатур и нот


Judas Priest - Dragonaut - таба, видео

Регистрация Запомнить меня
Войти через:  Facebook Google Twitter Vk Yandex Mail.ru

Judas Priest - Dragonaut - таба, видео

Печатать
Просмотров: 161
Авторы: Glenn Tipton, Richie Faulkner, Rob Halford

Band: Judas Priest
Song: Dragonaut
Album: Redeemer Of Souls
Tabbed By Dave Siddons

Standard Tuning

Intro/Chorus
|----------------------------------------|------------------------------------------|
|----------------------------------------|------------------------------------------|
|----------------------------------------|------------------------------------------|
|----------------------------------------|------------------------------------------|
|-----5------7------8------7-------------|-----5------7------2----------------------|
|--0--3---0--5---0--6---0--5----0--0--0--|--0--3---0--5---0--0---0--0--0--0--0-0-0--|

|----------------------------------------|------------------------------------------|
|----------------------------------------|------------------------------------------|
|----------------------------------------|------------------------------------------|
|----------------------------------------|--------------------------0------2-3-2-0--|
|-----5------7------8--------------------|-----5------7------2------0------2-3-2-0--|
|--0--3---0--5---0--6---0--5----0--0--0--|--0--3---0--5---0--0---0------0-----------|

Bridge
|----------------------------------------------------|
|----------------------------------------------------|
|----------------------------------------------------|
|----------------------------------------------------|
|--------7--------5--------7--------5-----7-----5----|
|--0--6-----0--6-----0--6-----0--6-----0-----0-------|

|----------------------------------------------------|
|----------------------------------------------------|
|----------------------------------------------------|
|----------------------------------------------------|
|--------7--------5--------7--------5-----5--7-------|
|--0--6-----0--6-----0--6-----0--6-----0-------------|

Verse
|----------------------------------------------------|
|----------------------------------------------------|
|----------------------------------------------------|
|--2--------0-----2--------0-----2-----3-----0-------|
|--2--------0-----2--------0-----2-----3-----0-------|
|-----0--0-----0-----0--0-----0-----0-----0-----0----|


|----------------------------------------------------|
|----------------------------------------------------|
|----------------------------------------------------|
|--2-------------------------------------------------|
|--2-----------------------8--8--8--7--7--7--5--5----|
|-----0--0--0--0--0--0--0--6--6--6--5--5--5--3--3----|

Pre-Chorus A
|------------------------------|
|------------------------------|
|------------------------------|
|----------7---9---5---7---4---|
|--2---5---5---7---3---5---2---|
|--0---3-----------------------|

Solo 1
|---------------------------------------------------|
|---------------------------------------------------|
|---------------------------------------------------|
|---5-----5--7--5-----------2-----------5-----------|
|---3--0--3--5--3--0--0--0--0--0--0--0--3--0--0--0--|
|---------------------------------------------------|

|------------------------------------------|
|------------------------------------------|
|------------------------------------------|
|--5-----5--7--5-----------8--7--5---------|
|--3--0--3--5--3--0--0--0--6--5--3---------|
|------------------------------------------|

not sure about this riff, hard to make out whats going off

Solo 2

|---------------------------------------------------------------|
|---------------------------------------------------------------|
|---------------------------------------------------------------|
|------5---7---8-----------4---8-------5---7---8-----------6----|
|--2---3---5---6---7---4---2---6---2---3---5---6---7---4---4----|
|--0---------------5---2-----------0---------------5---2--------|

Pre-Chorus B
|-----------------------------------------|------------------------------|
|-----------------------------------------|------------------------------|
|-----------------------------------------|------------------------------|
|----------7---9---5---7------------------|----------7---9---5---7---4---|
|--2---5---5---7---3---5---2-----2-2-2-2--|--2---5---5---7---3---5---2---|
|--0---3-------------------0-----0-0-0-0--|--0---3-----------------------|
Добавлено: 26.09.2014
Другие материалы по этой песне:

Страница создана 26.09.2014
http://primanota.ru/judas-priest/dragonaut-chords.htm
Привет, Гость.
Предлагаем пройти революционный курс по гитаре.
Подарок от PrimaNota.Ru, забирай!