PrimaNota.ru - самый крупный в мире бесплатный архив песенных текстов, аккордов, табулатур и нот


Judas Priest - Secrets Of The Dead - таба, видео

Регистрация Запомнить меня
Войти через:  Facebook Google Twitter Vk Yandex Mail.ru

Judas Priest - Secrets Of The Dead - таба, видео

Печатать
Просмотров: 282
Уроки эстрадного вокала в Санкт-Петербурге
-------------------------------------------------------------------------------
                             SECRETS OF THE DEAD - Judas Priest
-------------------------------------------------------------------------------
Tabbed by:Watson
E-mail:

Tuning:standard

intro
e|---------------------------------------------------------------------|
B|---------------------------------------------------------------------|
G|---------7-5--------------7-5-------------7-5------------------------|
D|-7-8-5-7-----8-7--7-8-5-7-----8~--7-8-5-7-----8-7--7-8-5-7-----------|
A|-------------------------------------------------------------8---10--|
E|-----------------------------------------------------------6---8-----|

e|----------------------------------------------------------------------|
B|----------------------------------------------------------------------|
G|---------7-5--------------7-5-------------7-5-------------------------|
D|-7-8-5-7-----8-7--7-8-5-7-----8~--7-8-5-7-----8-7--7-8-5-7--8--11-12--|
A|------------------------------------------------------------8--11-12--|
E|------------------------------------------------------------6--9--10--|

My first tab!
Добавлено: 18.06.2015
Другие материалы по этой песне:

Страница создана 18.06.2015
http://primanota.ru/judas-priest/secrets-of-dead-chords.htm
Привет, Гость.
Предлагаем пройти революционный курс по гитаре.
Подарок от PrimaNota.Ru, забирай!