PrimaNota.ru - самый крупный в мире бесплатный архив песенных текстов, аккордов, табулатур и нот


Judas Priest - Dreamer Deceiver - текст песни, таба, видео

Регистрация Запомнить меня
Войти через:  Facebook Google Twitter Vk Yandex Mail.ru

Judas Priest - Dreamer Deceiver - текст песни, таба, видео

Печатать
Просмотров: 310
Авторы: Glenn Tipton, Al Atkins, Rob Halford, Kenneth Downing

JUDAS PRIEST 
Dreamer Deceiver
Album :Sad Wings of Destiny

glenn tipton solo 
part 
E|-------------|----------------|----------------------|-------------------------------------------|
B|-------------|----------------|----------------------|---------------------10--------------------|
G|-------------|----------------|----------------------|-------------9---12-----12-11-9--------11--|
D|-------------|----------------|---------7----7-------|-7---9---12----------------------12--12----|
A|-------------|-7-----7-----9--|-10--9------------10--|-------------------------------------------|
E|----7----10--|----------------|----------------------|-------------------------------------------|


E|--------|-----------------|----------------------------|------------------------------|
B|--------|-10----10----10--|-10---10--------------------|-10---------------------------|
G|-9------|-----------------|----------12-11-9-----11-12-|-----12--11--9-------12--12---|
D|--------|-----------------|----------------------------|-----------------10-----------|
A|--------|-----------------|----------------------------|------------------------------|
E|--------|-----------------|----------------------------|------------------------------|

E|--------------------10-12-10-12-10-|-11----11--12--14--15--|-15----14-12-------12-14-|
B|-----------------12----------------|-----------------------|-------------15----------|
G|-11--12-11-9-----------------------|-----------------------|-------------------------|
D|-----------------------------------|-----------------------|-------------------------|
A|-----------------------------------|-----------------------|-------------------------|
E|-----------------------------------|-----------------------|-------------------------|

E|-14---14-15-14-12-14--12------12--|-12---14---15--14---15---17--|-17----17--17---17--|
B|--------------------------13------|-----------------------------|--------------------|
G|----------------------------------|-----------------------------|--------------------|
D|----------------------------------|-----------------------------|--------------------|
A|----------------------------------|-----------------------------|--------------------|
E|----------------------------------|-----------------------------|--------------------|

E|-17--17--17--17--15--12--15--12--|-14-15-14-12----12-14-12-------12----------------------|
B|---------------------------------|-------------14----------15-12----15-12----------------|
G|---------------------------------|----------------------------------------15-14-12-14-12-|
D|---------------------------------|-------------------------------------------------------|
A|---------------------------------|-------------------------------------------------------|
E|---------------------------------|-------------------------------------------------------|

E|-------------------------------------------|------------------------|---------------------------|
B|---------------------------------------10--|-10----10------10-------|---------------------------|
G|-11--11--12-14-12-11-----------9---12------|-----------12------9----|-9-------9-----------------|
D|---------------------14--14----------------|------------------------|-----12------9---9---------|
A|-------------------------------------------|------------------------|-----------------------10--|
E|-------------------------------------------|------------------------|---------------------------|

E|---------------------------|---------------------------------|-----------------------------12--|
B|---------------------------|---------------------------------|---------------------12--15------|
G|---------------------------|---------------------------------|---------12--14--14--------------|
D|---------------------------|---------------------------------|-12--14--------------------------|
A|-12--10--12---12---12---12-|-10--------------10--12--12--14--|---------------------------------|
E|---------------------------|-----10------12------------------|---------------------------------|

E|-12--14--14--15--15--17---17--|-17---17-15--------------15------15------15--|
B|------------------------------|-------------17--15--------------------------|
G|------------------------------|---------------------16------16------16------|
D|------------------------------|---------------------------------------------|
A|------------------------------|---------------------------------------------|
E|------------------------------|---------------------------------------------|

|-17--14--15---------------------|
|-------------17----5------------|
|--------------------------------|
|---------------------9---9----2-|
|--------------------------------|
|--------------------------------|

E|---------------------|-----------------------|-------------------------10------|
B|---------------------|-10--12----------------|-10--12----------10--12------12--|
G|-9---------9-----12--|---------9-----9---12--|---------9---12------------------|
D|-------12------------|-----------------------|---------------------------------|
A|---------------------|-----------------------|---------------------------------|
E|---------------------|-----------------------|---------------------------------|

E|-10----------------------------10-|
B|------13--12--10--12--12----13----|
G|----------------------------------|
D|----------------------------------|
A|----------------------------------|
E|----------------------------------|

|-10-------------------10-10---------------------------------------------------------------|
|----13-12-10-12-13-12-------13-12-10-13--12-10----12--10-------10-----------------10------|
|-----------------------------------------------12--------12-11----12-11-9---9-11------11--|
|------------------------------------------------------------------------------------------|
|------------------------------------------------------------------------------------------|
|------------------------------------------------------------------------------------------|

E|----------------------------------------------------------|------------------------------|
B|----------------------------------------------------------|--------------------------15--|
G|-12-11-9--11-12-11-9-----11-9-----9--9--------------------|----------------------16------|
D|----------------------12-------12----------9--8-----------|-----9------------------------|
A|-------------------------------------------------12-10-10-|-12------10--12---------------|
E|----------------------------------------------------------|-----------------12-----------|

E|---------------17---|-17-15-----------------------------|----------------------------------------|
B|-17--------15-------|-------17--17--------------17--16--|-16--15------------------15--17--15-----|
G|-------16-----------|---------------16--14--16----------|---------16--14--16--16-------------16--|
D|--------------------|-----------------------------------|----------------------------------------|
A|--------------------|-----------------------------------|----------------------------------------|
E|--------------------|-----------------------------------|----------------------------------------|

E|------------------------------------------|-------------------|----------------------------------|
B|----------------------------17-15---------|-15---15-------15--|----------------------------------|
G|-14------16----------14-16-------16-14-16-|------------16-----|14--16---14-----------------------|
D|------17----14--16-17---------------------|-------------------|------17-----16--17--14-----------|
A|------------------------------------------|-------------------|-------------------------17--14---|
E|------------------------------------------|-------------------|-------------------------------15-|

E|-------------------------------------------|-------------------------11--|-----------------------|
B|-------------------------------------------|---------------------12------|-8---7-----------------|
G|-------------------------------------------|---------11--12--14----------|---------9---7---9-----|
D|-------------------------------------------|-12--14----------------------|-----------------------|
A|-------------12----------12-14----12-14-15-|-----------------------------|-----------------------|
E|-12--14--15-----14-14-15-------15----------|-----------------------------|-----------------------|

E|-----------------6-----|---------------------------------------|---------------------|
B|-8---7-----------------|-8---7-------8-----8---7-----8---7-----|-8---7---------------|
G|---------9---7---------|---------9-----------------------------|---------9-7---9-----|
D|-----------------------|---------------------------------------|---------------------|
A|-----------------------|---------------------------------------|---------------------|
E|-----------------------|---------------------------------------|---------------------|

E|-----------------------|-----------------5-----|---------------------------------|
B|-8---7-----------------|-8---7-----------------|-8---7---------------------------|
G|---------9---7---9-----|---------9---7---------|---------9-----------------------|
D|-----------------------|-----------------------|-------------9-------------------|
A|-----------------------|-----------------------|-----------------10--9---7-------|
E|-----------------------|-----------------------|-----------------------------10--|

E|-----------------------------------|--------|--------|
B|-----------------------------------|--------|--------|
G|-----------------------------------|--------|--------|
D|-----------------------------------|-2------|--------|
A|-7-----------10------10--9---------|-2------|--------|
E|-----10--8-------7-----------10--3-|-0------|--------|
Добавлено: 26.07.2012
Другие материалы по этой песне:

Страница создана 12.03.2012
http://primanota.ru/judas-priest/dreamer-deceiver-chords.htm
Привет, Гость.
Предлагаем пройти революционный курс по гитаре.
Подарок от PrimaNota.Ru, забирай!