PrimaNota.ru - самый крупный в мире бесплатный архив песенных текстов, аккордов, табулатур и нот


Judas Priest - Plague And Pestilence - аккорды и текст, видео

Регистрация Запомнить меня
Войти через:  Facebook Google Twitter Vk Yandex Mail.ru

Judas Priest - Plague And Pestilence - аккорды и текст, видео

Печатать
Просмотров: 75
Уроки эстрадного вокала в Санкт-Петербурге
Plague And Pestilence
Judas Priest
Very unfinished, but should be usable (doesn't include solo)

E|---------------------------------------------------------|
B|---------------------------------------------------------|
G|---------2------2------2-------2------2-------2------2---|
D|---------2------3------2-------0------2-------3------4---|
A|--0--0-0----0-0----0-0-----0-0----0-0-----0-0----0-0-----|
E|---------------------------------------------------------|

E|---------------------------------------------------------|
B|---------------------------------------------------------|
G|---------2------2------2-------2------2-------2------2---|
D|---------0------2------3-------5------3-------2------3---|
A|--0--0-0----0-0----0-0-----0-0----0-0-----0-0----0-0-----|
E|---------------------------------------------------------|

[Verse 1]
Am
The storms from the gods make us
F           G
Perish with hunger
Am
Starvation and drought
      F               B
Are unleashed on this earth
Am
Reap what you sow
          F             G
From your greed and our treasures
Am
Far more than we need
        F               B
Now far more than we're worth

[Chorus]
Am          F
Nella tentazione
G           E
Cercando la gloria
Am           F
Il prezzo da pagare
G               Am
E'la caduta dell'uomo

E|-------------------------------------------------|
B|-9---------10---------7-------------------7----7-|
G|---10-7~------10-9~-----9-6~---7-9-7-9-10---10---|
D|-------------------------------------------------|
A|-------------------------------------------------|
E|-------------------------------------------------|

[Verse 2]
Am                 F              G
How can we live in despair and in sorrow?
Am
Our children are lost
     F           B
With all that we love
Am
Plague spreading forth
       F            G
To lay waste to our culture
Am               F         B
Civilization's demise from above

[Chorus]
Am          F
Nella tentazione
G           E
Cercando la gloria
Am           F
Il prezzo da pagare
G               Am
E'la caduta dell'uomo

[Solo]

[Bridge]
Am   G     C            F     Am
This world revolves and I foretell
    G      C     Dm       Am
The end of man resides in hell
    G       C        Dm    Am
For you can see that in my heart
   Dm     Am
We will depart

[Chorus]
Am          F
Nella tentazione
G           E
Cercando la gloria
Am           F
Il prezzo da pagare
G               Am
E'la caduta dell'uomo

Am          F
Nella tentazione (Into temptation)
G           E
Cercando la gloria (In search of glory)
Am           F
Il prezzo da pagare (The price we pay)
G               Am
E'la caduta dell'uomo (The fall of man)
Добавлено: 24.11.2017
Вам также может быть интересно:
Другие материалы по этой песне:
  • Аккорды и текст

Страница создана 24.11.2017
http://primanota.ru/judas-priest/plague-and-pestilence-chords.htm
Привет, Гость.
Предлагаем пройти революционный курс по гитаре.
Подарок от PrimaNota.Ru, забирай!