PrimaNota.ru - самый крупный в мире бесплатный архив песенных текстов, аккордов, табулатур и нот


John Mayer - Heavier Things - таба, видео

Регистрация Запомнить меня
Войти через:  Facebook Google Twitter Vk Yandex Mail.ru

John Mayer - Heavier Things - таба, видео

Печатать
Просмотров: 94
1. Clarity

Intro

e---------------------|
B---------------------|
G------6--------------|
D--4---4--------------|
A--2---5--------------|
E--3------------------|
   F   F

e--x----|
b--x----|
g--x----|
d--x----|
a--x----|
E--x----|
Shuffle this throughout the verse after each chord is picked


Verse

e------------------|
b------------------|
g------6-----------|
d--4---4-----------|
a--2---5-----------|
E--3---------------|
   F   F


Chorus

e--------------------2----|
b-2h3h3h3h3h3h3--3---3----|
g-2h4h4h4h4h4h4--2---2----|
d-0--------------0---4----|
a-x--------------x---2----|
E-3--------------2--------|


Bridge

e-----------------------------|
B-----------------------------|
G--------14----10------8------|
D---14---15----12-----10------|
A---15---13----10------8------|
E---13---------11------9------|
(So much wasted in.....)


e---------------|
b---------------|
g--------11\----|
d--11\----9\----|
a---9\---10\----|
E--10\----------|

go back to chorus


2. Bigger than my body

Intro: E

Asus4     A           E
This is a call to the colorblind
Eadd9        E
This is an IOU
    Asus4      A          A
I'm stranded behind the horizon line
E7                   E
Tied up in something new

BRIDGE CHORDS
E
Yes I'm grounded
D
Got my wings clipped
C#m
I'm surrounded by
Am
All this pavement
E
Guess  I'll circle
D
While I'm waiting
Em7
For my fears to dry

CHORUS CHORDS

             C#m        E          A
Someday I'll fly someday I'll soar
             C#m       E          A
Someday I'll be so damn much more
          C#m            E                A
Cause I'm bigger than my body gives me credit for

VERSE CHORDS
Why is it not the time?
What is there more to learn?
Shed this skin i've been triping in
Never to quite return

BRIDGE CHORDS 1
Yes i'm grounded
Got my wings clipped cause i'm surrounded by alluse this pavement
Guess i'll circle while i'm waiting for my fears to dry

CHORUS CHORDS
Someday i'll fly someday i'll sore
Someday i'll be so damn much more
Cause im bigger than my body gives me credit for
         C#m            E        D
Cause im bigger than my body now

Vocal break, Chorus chords played once more.  Also the main guitar riff (I'll
give you that once I've figured it out.)

Key change to C

Bridge chords 2
F  G      Em     F      F     G     Em  F
Maybe ill tangle in the power lines
       F     G  Em   F    F            G  Em  F
And it might be over in a seconds time
        F   G     Em        F          Bsus4
But ill gladly go down in a flame if a flames what it takes to remember my name
     Bsus4
To remember my name

Bridge Chords 1
Yes im grounded
Got my wings clipped
Cause im surrounded by all this pavement
Guess i'll circle while im waiting for my fuse to dry
Wait for my fears to dry

CHORUS CHORDS
            C#m
Someday ill fly
       E         A
Someday ill soar
             C#m       E         A
Someday i'll be do damn much more
C#m                     E
Cause im bigger than my body
A
Bigger than my body
Badd9                  E
Im bigger than my body now


3. Something's Missing

John Mayer
Somethings Missing
p -Pull Off
^ -Strum Up
( )-Optional
h -Hammer On
This is the tuning for it:
high e=e (dont change)
B=B (dont change)
G=F# (2nd fret on the newly tuned E string)
D=E (The 5th fret on the newly tuned B string)
A=B (The 7th fret on low E)
low E=E (dont change)

Intro
e-----0^-------------------------------0-------------|
B-----0^-------------------------------0-------------|
F#----0^----0---0----0---0-------------0-------------|
E-----0^---0---0----0---0---2p0--------0-------------|
B-----2^--2---4-----------------4p0-2--2-------------|
E-----------------2----4-----------------------------|
Play intro 4 times


Verse

e----0----------0----------0---------------------|
B----0----------0----------0----------0---0------|
F#---2--(0h2)---9--(0h9)---5--(0)-----0---0------|
E----0--(0)-----0--(0)-----5--(5)-----0---0------|
B----2--(2)-----9--(9)-----x--(x)-----4--(0h4)---|
E---------------0----------5--(5)-----4--(4)-----|

Chorus

e---------------------------------------------|
B---12-----------------12---------------------|
F#--12-----------------12---------------------|
E---12-11--------------12-11------------------|
B----9----12-9----------9----12-9-------------|
E----0------------------9---------------------|
Play each part twice..


4. New Deep

Key:
x -Muted String


Intro

e----------------------------2-------|
b---10------10------8--------3(x5)---|
g----9(x3)---9(x5)--7(x3)----4-------|
d---12------11-----10----------------|
a------------------------------------|
e------------------------------------|


e------------------------------------|
b---10------10------8------8---------|
g----9(x3)---9(x5)--7(x3)--7(x5)-----|
d---12------11-----10------9---------|
a------------------------------------|
e------------------------------------|

Verse 1&2

e----------------------------2-------|
b---10------10------8--------3(x5)---|
g----9(x3)---9(x5)--7(x3)----4-------|
d---12------11-----10----------------|
a------------------------------------|
e------------------------------------|


e------------------------------------|
b---10------10------8------8---------|
g----9(x3)---9(x5)--7(x3)--7(x5)-----|
d---12------11-----10------9---------|
a------------------------------------|
e------------------------------------|


Chorus

e-----------------|
b--7--7--8--5--5--|
g--0--0--0--7--6--|
d--7--7--7--7--7--|
a--5--x--x--x--x--|
e--x--7--0--5--5--|
"Numb is the new deep..."

Bridge

e-----------------|
b--2---3---3---2--|
g--2---2---2---2--|
d--0---4---4---2--|
a--x---3---2---0--|
e--2--------------|
"Im a new man..."
Play 4 times

e-----------------|
b----8------8-----|
g----7(x3)--7(x5)-|
d---10------9-----|
a-----------------|
e-----------------|


Outro

e---------------|
b--3--3---3--2--|
g--0--2---0--2--|
d--x--0---0--2--|
a--2--x---x--0--|
e--0--2---3--x--|
"Stop trying to figure it out...."
Play this part twice then go back to intro!

Outro part II

e--x----x----x----x--|
b--7---14---13---12--|
g--x----x----x----x--|
d--7---14---12---12--|
a--5---12---10---10--|
e--x----x----x----x--|
play this along with the intro chords, you can really hear when this part comes in
the end.

5. Come back to bed

Key:
p -Pull off
h -Hammer On
b -Bend
/ -Slide up
\ -Slide Down
~ -Let ring
T -Thumb (He uses his thumb in almost all of his songs)
x -Mute string


Intro (Bridge and Middle pickups)

e----------------------------|
b-----9---10--7-----9--------|
g----9----9---7----9---------|
d---9-----11--7---9----------|
a-9h11----9---5--9h11--------|
E---------x---x--------------|
Play this intro riff twice

Lead into verse

e--(0)~----------------|
b---5~-----------------|
g---6~-----------------|
d---7~-----------------|
a---x~-----------------|
E---5~-----------------|
    T


Verse 1&2

e-----------------------------------------------|
b--5-5-5----3-3-3---10--(0)---------------------|
g--6-6-6----4-4-4---11---2----------------------|
d--7-7-7----5-5-5---12---3----------------------|
a--x-x-x----x-x-x---x----x----------------------|
E--5-5-5----3-3-3---10---3----------------------|
   T T T    T T T   T    T
("Still is the life"....)

Pre-Chorus is just the intro...play intro

("You can be mad in the morning"....)

e------------------------------------------------------|
b--9-----10--5---7-------------------------------------|
g--9-----9---4---7---13~-------------------------------|
d--9-----11--6---7---14~-------------------------------|
a--9h11--9---4---5---11~-------------------------------|
E--0-----x---x---x-------------------------------------|
("Just dont leave me alone here".....)

Chorus

e----------(0)----------------|
b--5-----5--3-----------------|
g--6(h7)-5--2-----------------|
d--7-----7--0-----------------|
a--0-----0--0-----------------|
E--5-----5--2-----------------|
   T     T  T


Solo (Neck and Middle Pickups)

e---------------------------------------------------7~~-------|
b--12b14--------12b14---------12b14----7---12b14--------------|
g------------------------9~~----------------------------------|
d--------7h9~~--------7--------------7-----------7------------|
a-------------------------------------------------------------|
E-------------------------------------------------------------|
  Gradual bend 12 to 14

e--7----5-----0---------------------|
b--9h10-7h8-3-----------------------|
g--9----7---2-----------------------|
d-----------0-----------------------|
a-----------------------------------|
E-----------------------------------|


Play each of these about 6 times


e-----------------------------------------|
b-------------------14~------------14b15--|
g--------------14-----------14------------|
d---------/16-----16----/16----16---------|
a-----------------------------------------|
e-----------------------------------------|


e--------------------------------------------------------------|
b------------14-------------------------------------14---------|
g------14-------16-14h16p14-------14-16--16b18-14------16~-14--|
d--/16----16----------------16p14-----------------16-----------|
a--------------------------------------------------------------|
e--------------------------------------------------------------|

e---------------------------------|
b-------14-17---------------------|
g-16b18-------16b18r16----14h16~--|
d----------------------16---------|
a---------------------------------|
e---------------------------------|
Play Intro after this


Outro

e---0-----0------|
b---5-----3------|
g---6h7---2------|
d---7-----0------|
a---0-----x------|
e---5-----2------|
    T     T
("Dont hold your love"...)


e--------------------|
b--5--5--5--5--5--5--|
g--6--6--4--6--4--6--|
d--7--4--4--4--4--4--|
a--x--5--5--x--x--5--|
e--5--------5--5-----|
   T        T  T
("Dont hold your love over"....)


6. Homelife-Unavailable

7. Split screen sadness

Tuning: Standard E

*snapping starts*

Intro *palm muted*
e|-------------------------------------|
B|-------------------------------------|
G|-2-2-2-2-2-2-2-2-4-4-4-4-4-4-4-4-----|
D|-5-5-5-5-5-5-5-5-5-5-5-5-5-5-5-5-----|
A|-3-3-3-3-3-3-3-3-3-3-3-3-3-3-3-3-----|
E|-------------------------------------|x 4
   C9              C11

Verse 1

"And i dont know where you went when you left me but..."

      *palm muted*
e|-------------------------------------|
B|-------------------------------------|
G|-2-2-2-2-2-2-2-2-4-4-4-4-4-4-4-4-----|
D|-5-5-5-5-5-5-5-5-5-5-5-5-5-5-5-5-----|
A|-3-3-3-3-3-3-3-3-3-3-3-3-3-3-3-3-----|
E|-------------------------------------|x 8
   C9              C11


"So maybe i'll sleep inside my coat..."

    Guitar 1   *let notes ring out*
e|-0-----------------------------------------3------------------------------|
B|-1-----------------------------------------3------------------------------|
G|-2-----------------------------------------0------------------------------|
D|-2-----------------------------------------2------------------------------|
A|-0-----------------------------------------3------------------------------|
E|--------------------------------------------------------------------------|

 |  Guitar 2   *let notes ring out*
e|---------------------------------------------------------------------------|
B|---------------------------------------------------------------------------|
G|-----7-9-7----7----7----7----7----7----7-----14----14----14----14----14----|
D|-/10-------10---10---10---10---10---10---/12----12----12----12----16-------|
A|---------------------------------------------------------------------------|
E|---------------------------------------------------------------------------|


                              "i cant find a fight"

    Guitar 1   *let notes ring out*
e|-3-------------------------------------------------------------------------|
B|-3-------------------------------------------------------------------------|
G|-0---------------------------------------------------7-----7-----7-----7---|
D|-0-----------------------------------------------10----10----10----10------|
A|-2-------------------------------------------------------------------------|
E|-3-------------------------------------------------------------------------|

 |  Guitar 2   *let notes ring out*
e|---------------------------------------------------------------------------|
B|----10----10----10----10----10----10----10----10---------------------------|
G|-12----12----12----12----12----12----12----12-------12----12----12----12---|
D|-------------------------------------------------10----10----10----10------|
A|---------------------------------------------------------------------------|
E|---------------------------------------------------------------------------|


Chorus


"we share the sadness"

    Guitar 1    *let notes ring out*
e|---------------------------------------|
B|---------------------------------------|
G|----7----7----7----7---7---7---7---7---|
D|-10---10---10---10---9---9---9---9-----|
A|---------------------------------------|
E|---------------------------------------| x 2


 "Two wrongs make it all alright..."

    Guitar 1  *strum chords*
e|-3-------------------------------3----------------------------------------|
B|-3-------------------------------3----------------------------------------|
G|-0-------------------------------0----------------------------------------|
D|-0-------------------------------2----------------------------------------|
A|-2-------------------------------3----------------------------------------|
E|-3------------------------------------------------------------------------|

   Guitar 2  *this simulates the violins. listen to song for rhythm*

e|--------------------------------------------------------------------------|
B|--------------------------------------------------------------------------|
G|--/12--11--13------/12--11--------/12--11--13-------/12--11---------------|
D|---------------12-----------9------------------12------------9------------|
A|--------------------------------------------------------------------------|
E|--------------------------------------------------------------------------|


Verse 2

"all you need is love is a lie cuz..."

    Guitar 1  *strum chords*
e|-3-------------------------------3----------------------------------------|
B|-3-------------------------------3----------------------------------------|
G|-0-------------------------------0----------------------------------------|
D|-0-------------------------------2----------------------------------------|
A|-2-------------------------------3----------------------------------------|
E|-3------------------------------------------------------------------------|

Guitar 2  *this simulates the violins. listen to song for rhythm*

e|--------------------------------------------------------------------------|
B|--------------------------------------------------------------------------|
G|--/12--11--13------/12--11--------/12--11--13-------/12--11---------------|
D|---------------12-----------9------------------12------------9------------|
A|--------------------------------------------------------------------------|
E|--------------------------------------------------------------------------|

"So maybe i'll sleep inside my coat..."

    Guitar 1   *let notes ring out*
e|-0-----------------------------------------3------------------------------|
B|-1-----------------------------------------3------------------------------|
G|-2-----------------------------------------0------------------------------|
D|-2-----------------------------------------2------------------------------|
A|-0-----------------------------------------3------------------------------|
E|--------------------------------------------------------------------------|

  Guitar 2   *let notes ring out*

e|---------------------------------------------------------------------------|
B|---------------------------------------------------------------------------|
G|-----7-9-7----7----7----7----7----7----7-----14----14----14----14----14----|
D|-/10-------10---10---10---10---10---10---/12----12----12----12----16-------|
A|---------------------------------------------------------------------------|
E|---------------------------------------------------------------------------|


                 "i cant find a fight"

    Guitar 1   *let notes ring out*
e|-3------------------------------------3-----------------------------------|
B|-3------------------------------------3-----------------------------------|
G|-0------------------------------------0-----------------------------------|
D|-0------------------------------------2-----------------------------------|
A|-2------------------------------------3-----------------------------------|
E|-3------------------------------------------------------------------------|

 Guitar 2   *let notes ring out*

e|--------------------------------------------------------------------------|
B|--------------------------------------------------------------------------|
G|---7---7---7---7---7---7---7---7----7----7----7----7----7----7----7----7--|
D|-9---9---9---9---9---9---9---9---10---10---10---10---10---10---10---10----|
A|--------------------------------------------------------------------------|
E|--------------------------------------------------------------------------|

x2

Chorus


 "Two wrongs make it all alright..."

    Guitar 1  *strum chords*
e|-3-------------------------------3----------------------------------------|
B|-3-------------------------------3----------------------------------------|
G|-0-------------------------------0----------------------------------------|
D|-0-------------------------------2----------------------------------------|
A|-2-------------------------------3----------------------------------------|
E|-3------------------------------------------------------------------------|

  Guitar 2  *this simulates the violins. listen to song for rhythm*

e|---------------------------------------------------------------------------|
B|---------------------------------------------------------------------------|
G|--/12--11--13------/12--11--------/12--11--13-------/12--11----------------|
D|---------------12-----------9------------------12------------9-------------|
A|---------------------------------------------------------------------------|
E|---------------------------------------------------------------------------|


Bridge/Solo


     Guitar 1  *strum chords*
e|-0---------2---------3----------------------------------------------------|
B|-0---------2---------3----------------------------------------------------|
G|-0---------3---------0----------------------------------------------------|
D|-2---------4---------2----------------------------------------------------|
A|-2---------4---------3----------------------------------------------------|
E|-0---------2--------------------------------------------------------------|

  Guitar 2  *solo, check song for rhythm*
e|-------------2---2---3----------------------------------------------------|
B|---------------5---5------5-----------5--------------7--------------------|
G|-----------------------/7---/9--7--/7---/9--7---7--9---9--7--5--2---------|
D|--------------------------------------------------------------------------|
A|--------------------------------------------------------------------------|
E|--------------------------------------------------------------------------|

    Guitar 1 *strum chords*
e|-3------------------------------------------------------------------------|
B|-3------------------------------------------------------------------------|
G|-0------------------------------------------------------------------------|
D|-0------------------------------------------------------------------------|
A|-2------------------------------------------------------------------------|
E|-3------------------------------------------------------------------------|


Verse 3

"i called because i need to feel you on the line..."

      *palm muted*
e|-------------------------------------|
B|-------------------------------------|
G|-2-2-2-2-2-2-2-2-4-4-4-4-4-4-4-4-----|
D|-5-5-5-5-5-5-5-5-5-5-5-5-5-5-5-5-----|
A|-3-3-3-3-3-3-3-3-3-3-3-3-3-3-3-3-----|
E|-------------------------------------|x 6
   C9              C11

"...dying day, dont let me get away."

    Guitar 1  *strum chords*
e|-3-----------------------------------------|
B|-3-----------------------------------------|
G|-0-----------------------------------------|
D|-2-----------------------------------------|
A|-3---------------------------------3--3--2-|
E|-------------------------------------------|
 | C					     |
 |					     |
 |  Guitar 2  *this simulates the violins*   |
e|-------------------------------------------|
B|-------------------------------------------|
G|--/12--11--13------/12--11-----------------|
D|---------------12-----------9--------------|
A|-------------------------------------------|
E|-------------------------------------------|

"I cant wait to figure out whats wrong with me..."

    Guitar 1   *let notes ring out*
e|-0-----------------------------------------3------------------------------|
B|-1-----------------------------------------3------------------------------|
G|-2-----------------------------------------0------------------------------|
D|-2-----------------------------------------2------------------------------|
A|-0-----------------------------------------3------------------------------|
E|--------------------------------------------------------------------------|

 |  Guitar 2   *let notes ring out*
e|---------------------------------------------------------------------------|
B|---------------------------------------------------------------------------|
G|-----7-9-7----7----7----7----7----7----7-----14----14----14----14----14----|
D|-/10-------10---10---10---10---10---10---/12----12----12----12----16-------|
A|---------------------------------------------------------------------------|
E|---------------------------------------------------------------------------|


                 "there's no substitute for time"

    Guitar 1   *let notes ring out*
e|-3------------------------------------------3-----------------------------|
B|-3------------------------------------------3-----------------------------|
G|-0------------------------------------------0-----------------------------|
D|-0------------------------------------------2-----------------------------|
A|-2------------------------------------------3-----------------------------|
E|-3------------------------------------------------------------------------|

 |  Guitar 2   *let notes ring out*
e|---------------------------------------------------------------------------|
B|----12----13----15----12----12----13----15----12----12----13----15----12---|
G|-12----12----12----12----12----12----12----12----12----12----12----12------|
D|---------------------------------------------------------------------------|
A|---------------------------------------------------------------------------|
E|---------------------------------------------------------------------------|


Chorus


 "Two wrongs make it all alright..."

    Guitar 1  *strum chords*
e|-3-------------------------------3----------------------------------------|
B|-3-------------------------------3----------------------------------------|
G|-0-------------------------------0----------------------------------------|
D|-0-------------------------------2----------------------------------------|
A|-2-------------------------------3----------------------------------------|
E|-3------------------------------------------------------------------------|
 | G				   C
 |  Guitar 2  *this simulates the violins. listen to song for rhythm
e|--------------------------------------------------------------------------|
B|--------------------------------------------------------------------------|
G|--/12--11--13------/12--11--------/12--11--13-------/12--11---------------|
D|---------------12-----------9------------------12------------9------------|
A|--------------------------------------------------------------------------|
E|--------------------------------------------------------------------------| Repeat
fade

8. Daughters

Bm7* Em7 Asus4 D x2

Bm7     Em7
i know a girl
                   Asus4                            D
she puts the color inside of my world
Bm7                      Em7
she's just like a maze
                           Asus4                            D
where all of the walls all continually change
Bm7               Em7
I've done all i can
                       Asus4                                      D
to stand on the steps with my heart in my hands
 Bm7                      Em7
Now i started to see
                         Asus4                            D
maybe its got nothing to do with me.

    Bm7           Em7                   Asus7    D
so fathers be good to your daughters,
   Bm7           Em7            Asus7    D
daughters will love like you do,
Bm7           Em7                   Asus7       D
girls become lovers who turn into mothers
Bm7           Em7                   Asus7         D
so mothers be good to your daughters too.
Bm7* Em7 Asus4 D x2
Bm7                Em7
Oh you see that skin
          Asus7                               D  walk to B
its the same shes been standing in
     Bm7                         Em7
since the day she say him walkin away
               Asus7                                                     D
now she
Добавлено: 22.08.2013
Другие материалы по этой песне:
  • Аккорды и текст

Страница создана 22.08.2013
http://primanota.ru/john-mayer/heavier-things-chords.htm
Привет, Гость.
Предлагаем пройти революционный курс по гитаре.
Подарок от PrimaNota.Ru, забирай!