PrimaNota.ru - самый крупный в мире бесплатный архив песенных текстов, аккордов, табулатур и нот


John Mayer - Comfortable Any Given Thursday - таба, видео

Регистрация Запомнить меня
Войти через:  Facebook Google Twitter Vk Yandex Mail.ru

John Mayer - Comfortable Any Given Thursday - таба, видео

Печатать
Просмотров: 153
Уроки эстрадного вокала в Санкт-Петербурге
John Mayer
"COMFORTABLE - LIVE at ANY GIVEN THURSDAY"


tabbed by A.R. Backus & M.V.A. van Zwieten

Capo on 3rd fret
All chords relative to capo
Listen to song for strumming patterns

CHORDS:
-------
D         x00232
Em7/Bb    x12030
Bm7       x24232
Am        x02210
D11       x00010
G         32003x or 320033 (in pre-chorus and bridge)
A7add11   x0002x
G/B       x2003x
Em11      025232
A7sus4    x02033
Gmaj7     3x0032
Asus4     x02230
A         x02220
Eadd9/G#  4x4450
D/B       x20232
Am7       x02010
E7        020100
Gdim      3x2320
A7        x02020
Bm7add11  x20230
A7sus2    x02000
Gmaj9     3x423x
E11       0x423x


INTRO - Part I (fingerpicked):
-----------------------------

e|------------------------------------|--------------------------------|
B|--0------------------0--------------|--2--------------3--------------|
G|-------(0)----------------0---------|-------0--------------0---------|
D|--------------(0)--------------0----|------------0--------------0----|
A|------------------------------------|--0--------------2--------------|
E|--3---------------------------------|--------------------------------|
    

e|--------------------------------|--------------------------------|
B|-----------------0--------------|--2--------------3--------------|
G|----------------------0---------|-------0--------------0---------|
D|-------0-------------------0----|------------0--------------0----|
A|--------------------------------|--0--------------2--------------|
E|--3---------3-------------------|--------------------------------|


e|--------------------------------|--2--------------0--------------|
B|-----------------3p0h2----0-----|-------0--------------0---------|
G|--------------------------------|------------0--------------0----|
D|-------0------------------------|--------------------------------|
A|--------------------------------|--2--------------0--------------|
E|--3---------3-------------------|--------------------------------|


e|------------------------------------|--------------------------------|
B|--0------------------0--------------|--2--------------3--------------|
G|-------(0)----------------0---------|-------0--------------0---------|
D|--------------(0)--------------0----|------------0--------------0----|
A|------------------------------------|--0--------------2--------------|
E|--3---------------------------------|--------------------------------|


e|--------------------------------|--------------------------------|
B|--------------------------------|--------------------------------|
G|------------0--0h2----0---------|--------------------------------|
D|--2----4-------------------4----|-------2----4--------------0----|
A|--------------------------------|--0--------------2----4---------|
E|--3-----------------------------|--------------------------------|


e|--------------------------------|--------------------------------|
B|--------------------------------|--------------------------------|
G|------------0----2---p0---------|--------------------------------|
D|--2---h4-------------------4----|-------2----4--------------0----|
A|--------------------------------|--0--------------2----4---------|
E|--3-----------------------------|--------------------------------|


e|--------------------------------|--------------------------------|
B|--------------------------------|--------------------------------|
G|------------0----2p0------------|--------------------------------|
D|--2----4--------------4---------|-------2----4--------------2----|
A|---------------------------0----|--0--------------2----4---------|
E|--3-----------------------------|--------------------------------|


e|------------------------------|--------------------------------|
B|------------------------------|--------------------------------|
G|------2-----------------------|--------------------------------|
D|--4--------0------------------|-------0---------0--------------|
A|--------------------4---------|--2---------0---------4---------|
E|--3----------(3)---------(3)--|--------------------------------|


e|--------------------------------|--------------------------------|
B|--0--------------0--------------|--2--------------3--------------|
G|-------0--------------0---------|-------0------------------------|
D|------------0--------------0----|------------0-------------------|
A|--------------------------------|--0--------------2--------------|
E|--3-----------------------------|--------------------------------|


INTRO - Part II (switch to pick):
--------------------------------

e|--0h2-----------2p0---------|--0h2----3----2--------------|
B|--3-------------3------3----|--3----------------3---------|
G|--2-------------2-----------|--0---------------------0----|
D|--0--------0----0-----------|--2--------------------------|
A|----------------------------|--1--------------------------|
E|----------------------------|-----------------------------|


e|-------------2--2--2----0---------|--0----2----3----2----0---------|
B|-------------3--3--3---------3----|--1--------------1---------3----|
G|--------0-------------------------|--0--------------0--------------|
D|----------------------------------|--2-----------------------------|
A|--/2------------------------------|--------------------------------|
E|----------------------------------|--------------------------------|


e|-----------------------------------|--------------------------------------|
B|--0-----------------------0--------|-----------2-----------------3--------|
G|--0--------------------------0-----|--------0-----0-----------0-----0-----|
D|--0---------------0-------------0--|-----0-----------0-----0-----------0--|
A|-----------------------------------|--0-----------------2-----------------|
E|--3----------3---------------------|--------------------------------------|


e|-----------------2--------------|--2-----------------------------|
B|----------------------3---------|--3-----------------------------|
G|------------2--------------2----|--2------------(Em11)-----------|
D|-------5------------------------|--5-----------------------------|
A|--------------------------------|--2-----------------------------|
E|--0-----------------------------|--0-----------------------------|


VERSE:
-----
D                     Em7/Bb    
I just remembered that time at the market

Bm7                      Am7          D11    G
snuck up behind me and jumped on my shopping cart

       A7add11    G/B    Em11
And      rode     down       aisle five

D                       Em7/Bb
you looked behind you to smile back at me

Bm7             Am7        D11   G
crashed into a rack full of magazines

       A7add11     G/B   Em11              D
they     asked      us       if we could leave

 -leave
    
e|--2------------2p0----------|-----------------------------|
B|--3----------3-----3-----3--|--------3------2------2------|
G|--2--------2---------2------|----------0----0--------0----|
D|--0--------------------0----|------0-----0--0----------0--|
A|----------------------------|--0h1----------0----0--------|
E|----------------------------|-----------------------------|


e|--2----2----2--2--2---5----5--5--5--5--|--0----0----0--0--0----3----3--3--3--3--|
B|--2h3--3----3--3--3---3----3--3--3--3--|--0h1--1----1--1--1----1----1--1--1--1--|
G|--2----2----2--2--2---2----2--2--2--2--|--0----0----0--0--0----0----0--0--0--0--|
D|--2h4--4----4--4--4---4----4--4--4--4--|--0h2--2----2--2--2----2----2--2--2--2--|
A|--2----2----2--2--2---2----2--2--2--2--|--0----0----0--0--0----0----0--0--0--0--|
E|---------------------------------------|----------------------------------------|


PRE-CHORUS:
----------
G  Gmaj7  A7               G  Gmaj7      Asus4
Can't remember what went wrong last September

            G  Gmaj7    A             Eadd9/G#   
Though I'm sure you'd remind me, if you had to


CHORUS:
------
D              D/B
Our love was

                 Gmaj7
comfortable and 

         Asus4      A
so broken in

-broken in

e|-------0----------------------------------------|
B|-------3--------3----------3p2---------2--------|
G|-------2-----------2-------2--------------2-----|
D|-------2--------------2----2-------2---------2--|
A|-------0----0--------------0----0---------------|
E|------------------------------------------------|


VERSE:
-----
I sleep with this new girl I'm still getting used to
My friends all approve, say "she's gonna be good for you"
They throw me high fives
She says the Bible is all that she reads
and prefers that I not use profanity
Your mouth was so dirty 

PRE-CHORUS:
----------
Life of the party
And she swears that she's artsy
But you could distinguish Miles from Coltrane

CHORUS:
------
D             D/B
Our love was 

                  Gmaj7
comfortable and 

         Asus4    A    Asus4
so broken in


BRIDGE:
------
D              D/B
She's perfect 

             F
So flawless,

   Am7     Bm7add11  E7      G      Gdim
Or so they say,              hey

        Bm7add11  E7     G       Gdim
So they say,             hey


e|--3----2----0----|--3----2----0----|--3----5p2----3p2p0----|--------3-----2-----0-----|
B|-----------------|-----------------|-----------------------|--------------------------|
G|-----------------|-----------------|-----------------------|--------------------------|
D|-----------------|-----------------|-----------------------|--------------------0--2--|
A|-----------------|-----------------|-----------------------|-----------0--1-/3--------|
E|-----------------|-----------------|-----------------------|--0--2--3-----------------|


VERSE:
-----
D                          Em7/Bb
She thinks I can't see the smile that she's fakin'

Bm7                      Am7           A7sus2    Gmaj9
Poses for pictures that aren't being taken, no

               E11
I loved your

                   Gmaj9
Grey sweat pants

             Asus4
No make up

             
So perfect


CHORUS:
------
D             D/B
Our love was 

                 Em11
comfortable and 

         Asus4   A    Asus4
so broken in


OUTRO - Part I:
--------------
D              D/B
She's perfect 

             F
So flawless,

   Am7     Bm7add11   E7      G    
I'm not impressed

F     Bm7add11      
No, I want you back, 

     E7  Bm7  E7              Bm7  E7
Back              No No No No No

  Bm7                       E7
I want you back, I want you back,


G    Asus4   A
Back

e|-------0----------------------------------------|
B|-------3--------3----------3p2---------2--------|
G|-------2-----------2-------2----2---------2-----|
D|-------2--------------2----2-------2---------2--|
A|-------0----0-----------------------------------|
E|------------------------------------------------|


OUTRO - Part II (fingerpicked):
------------------------------

e|------------------------------------|--------------------------------|
B|--0------------------0--------------|--2--------------3--------------|
G|--------0-----------------0---------|-------0--------------0---------|
D|---------------0---------------0----|------------0--------------0----|
A|------------------------------------|--0--------------2--------------|
E|--3---------------------------------|--------------------------------|

e|--------------------------------|--------------------------------|
B|-----------------0--------------|--2--------------3--------------|
G|----------------------0---------|-------0--------------0---------|
D|-------0-------------------0----|------------0--------------0----|
A|--------------------------------|--0--------------2--------------|
E|--3---------3-------------------|--------------------------------|

e|--------------------------------|-------0--------------2---------|
B|-----------------3--------------|--2---------2----3---------3----|
G|----------------------0---------|--------------------------------|
D|-------0-------------------0----|--------------------------------|
A|--------------------------------|--0--------------2--------------|
E|--3---------3-------------------|--------------------------------|

e|--------------------------------|--------------------------------|
B|-----------------0--------------|--2--------------3--------------|
G|----------------------0---------|-------0--------------0---------|
D|-------0-------------------0----|------------0--------------0----|
A|--------------------------------|--0--------------2--------------|
E|--3---------3-------------------|--------------------------------|


OUTRO - Part III:
----------------

e|------------------------------------|--------------------------------|
B|--0------------------0--------------|--2--------------3--------------|
G|--------0-----------------0---------|-------0--------------0---------| (11x)
D|---------------0---------------0----|------------0--------------0----|
A|------------------------------------|--0--------------2--------------|
E|--3---------------------------------|--------------------------------|

e|--------------------------------|--------------------------------|
B|--0--------------0--------------|--2--------------3--------------|
G|-------0--------------0---------|-------0------------------------|
D|------------0--------------0----|------------0-------------------|
A|--------------------------------|--0--------------2--------------|
E|--3-----------------------------|--------------------------------|

That you were my first love
Is just dumb luck
A technicality
You were ahead of me
That you were my first love
Is just dumb, dumb, stupid luck
A technicality
You will always be ahead of me
Ooohooh
Tell me
Why i have to
Practice on you
Why i have to
Practice on your heart

OUTRO - Part IV (switch to pick):
--------------------------------

e|--0h2----------2p0----------|----------3------------------|
B|--3----------3-----3-----3--|--------3---3--------2-------|
G|--2--------2---------2------|------0------------0---0-----|
D|--0--------------------0----|-----------------2-------2---|
A|----------------------------|--0h1----------0-------------|
E|----------------------------|-----------------------------|

e|--0h2-(2)---2-----2p0-----------|-----------------------------------------|
B|--3---(3)--(3)---------3-----3--|-------------3-----------------2---------|
G|--2---(2)--(2)-----------2------|----------0-----0-----------0-----0------|
D|--0----0----0--------------0----|------2------------2-----2-----------2---|
A|--------------------------------|--1-------------------0------------------|
E|--------------------------------|-----------------------------------------|

e|--0h2-------------2---------|
B|--3-----3---------3---------|
G|--2--------2------2---------|
D|--0---------------0---------|
A|------------------x---------|
E|------------------2---------|


Tablature Legend
----------------
L - tied note
x - dead note
g - grace note
(n) - ghost note
> - accentuded note
NH - natural harmonic
AH - artificial harmonic
TH - tapped harmonic
SH - semi harmonic
PH - pitch harmonic
h - hammer on
p - pull off
b - bend
br - bendRelease
pb - preBend
pbr - preBendRelease
brb - bendReleaseBend
\n/ - tremolo bar dip
\n - tremolo bar dive
-/n - tremolo bar Release up
/n\ - tremolo bar inverted dip
/n - tremolo bar return
-\n - tremolo bar Release down
S - shift slide
s - legato slide
/ -  slide into from below or out of upwards
\ -  slide into from above or out of downwards
~ - vibrato
W - wide vibrato
tr - trill
TP - tremolo picking
T - tapping
S - slap
P - pop
< - fade in
^ - brush up
v - brush down
Добавлено: 12.09.2015
Другие материалы по этой песне:
  • Аккорды и текст

Страница создана 12.09.2015
http://primanota.ru/john-mayer/comfortable-any-given-thursday-chords.htm
Привет, Гость.
Предлагаем пройти революционный курс по гитаре.
Подарок от PrimaNota.Ru, забирай!