PrimaNota.ru - самый крупный в мире бесплатный архив песенных текстов, аккордов, табулатур и нот


John Mayer - Splite Screen Sadness - таба, видео

Регистрация Запомнить меня
Войти через:  Facebook Google Twitter Vk Yandex Mail.ru

John Mayer - Splite Screen Sadness - таба, видео

Печатать
Просмотров: 82
Song: Split Screen Sadness
Artist: John Mayer
Album: Heavier Things
Transcribed By: Michelle Monette

This is my own acoustic arrangement of Split Screen Sadness by John Mayer. For questions
comments please e-mail me at ml_monette@hotmail.com. I ask that you please credit me if
use this tab on any other site. Be sure to listen to the song while playing to make sure 
playing it properly. Enjoy!

Notation:

X: Slap strings with right hand

Intro
e|--------X-----------X--------X-----------X-----|
B|-----1--X--1-----1--X-----1--X--1-----1--X--1--|
G|-----2--X--2-----2--X-----4--X--4-----4--X--4--| X4
D|--------X-----------X--------X-----------X-----|
A|--------X-----------X--------X-----------X-----|
E|--3-----X-----3-----X--3-----X-----3-----X-----|

Verse 1 (And I don't know where you went…)
e|--------X-----------X--------X-----------X-----|
B|-----1--X--1-----1--X-----1--X--1-----1--X--1--|
G|-----2--X--2-----2--X-----4--X--4-----4--X--4--| X2
D|--------X-----------X--------X-----------X-----|
A|--------X-----------X--------X-----------X-----|
E|--3-----X-----3-----X--3-----X-----3-----X-----|

(gone by now…)
e|--------X-----------X--------X-----------X-----|
B|-----1--X--1-----1--X-----1--X--1-----1--X--1--|
G|-----2--X--2-----2--X-----4--X--4-----4--X--4--| X2
D|--------X-----------X--------X-----------X-----|
A|--3-----X-----3-----X--3-----X-----3-----X-----|
E|--------X-----------X--------X-----------X-----|

(one hand on the trigger…)
e|--------X-----------X--------X-----------X-----|
B|-----1--X--1-----1--X-----1--X--1-----1--X--1--|
G|-----2--X--2-----2--X-----4--X--4-----4--X--4--| X2
D|--------X-----------X--------X-----------X-----|
A|--------X-----------X--------X-----------X-----|
E|--3-----X-----3-----X--3-----X-----3-----X-----|

(alright…)
e|--------X-----------X--------X-----------X-----|
B|-----1--X--1-----1--X-----1--X--1-----1--X--1--|
G|-----2--X--2-----2--X-----4--X--4-----4--X--4--| X2
D|--------X-----------X--------X-----------X-----|
A|--3-----X-----3-----X--3-----X-----3-----X-----|
E|--------X-----------X--------X-----------X-----|
Pre-Chorus 1(Maybe I'll sleep…)
e|--------X-----------X-----------X-----------X-----|
B|-----3--X--3-----3--X--3-----3--X--3-----3--X--3--|
G|-----5--X--5-----5--X--5-----5--X--5-----5--X--5--|
D|--------X-----------X-----------X-----------X-----|
A|--0-----X-----0-----X-----0-----X-----0-----X-----|
E|--------X-----------X-----------X-----------X-----|

(wait on the porch…)
e|----------X--------------X--------------X--------------X------|
B|------10--X--10------10--X--10------10--X--10------10--X--10--|
G|------12--X--12------12--X--12------11--X--11------11--X--11--|
D|----------X--------------X--------------X--------------X------|
A|----------X--------------X--------------X--------------X------|
E|--10------X------10------X------10------X------10------X------|

(right…)
e|--------X-----------X-----------X-----------X-----|
B|-----8--X--8-----8--X--8-----8--X--8-----8--X--8--|
G|-----9--X--9-----9--X--9-----9--X--9-----9--X--9--|
D|--------X-----------X-----------X-----------X-----|
A|--------X-----------X-----------X-----------X-----|
E|--8-----X-----8-----X-----8-----X-----8-----X-----|

(flight…) (sadness…) (sadness…)
e|--------X-----------X-----------X-----------X-----|
B|-----3--X--3-----3--X--3-----3--X--3-----3--X--3--|
G|-----4--X--4-----4--X--4-----4--X--4-----4--X--4--| X3
D|--------X-----------X-----------X-----------X-----|
A|--------X-----------X-----------X-----------X-----|
E|--3-----X-----3-----X-----3-----X-----3-----X-----|


Chorus (Two wrongs…)
e|--------X-----------X-----------X-----------X-----|
B|-----8--X--8-----8--X--8-----7--X--7-----7--X--7--|
G|-----7--X--7-----7--X--7-----7--X--7-----7--X--7--| X2
D|--5-----X-----5-----X-----5-----X-----5-----X-----|
A|--------X-----------X-----------X-----------X-----|
E|--------X-----------X-----------X-----------X-----|

e|---------X------------X------------X------------X-----|
B|------8--X--8------8--X--8------7--X--7------7--X--7--|
G|------7--X--7------7--X--7------7--X--7------7--X--7--| X2
D|--10-----X-----10-----X-----10-----X-----10-----X-----|
A|---------X------------X------------X------------X-----|
E|---------X------------X------------X------------X-----|


Verse 2 (All you need is love…)
e|--------X-----------X-----------X-----------X-----|
B|-----8--X--8-----8--X--8-----7--X--7-----7--X--7--|
G|-----7--X--7-----7--X--7-----7--X--7-----7--X--7--| X2
D|--5-----X-----5-----X-----5-----X-----5-----X-----|
A|--------X-----------X-----------X-----------X-----|
E|--------X-----------X-----------X-----------X-----|

(tired…)
e|---------X------------X------------X------------X-----|
B|------8--X--8------8--X--8------7--X--7------7--X--7--|
G|------7--X--7------7--X--7------7--X--7------7--X--7--| X2
D|--10-----X-----10-----X-----10-----X-----10-----X-----|
A|---------X------------X------------X------------X-----|
E|---------X------------X------------X------------X-----|

(And it stings…)
e|--------X-----------X-----------X-----------X-----|
B|-----8--X--8-----8--X--8-----7--X--7-----7--X--7--|
G|-----7--X--7-----7--X--7-----7--X--7-----7--X--7--| X2
D|--5-----X-----5-----X-----5-----X-----5-----X-----|
A|--------X-----------X-----------X-----------X-----|
E|--------X-----------X-----------X-----------X-----|

(air you took…)
e|---------X------------X------------X------------X-----|
B|------8--X--8------8--X--8------7--X--7------7--X--7--|
G|------7--X--7------7--X--7------7--X--7------7--X--7--| X2
D|--10-----X-----10-----X-----10-----X-----10-----X-----|
A|---------X------------X------------X------------X-----|
E|---------X------------X------------X------------X-----|


Pre-Chorus 2(Maybe I'll sleep…)
e|--------X-----------X-----------X-----------X-----|
B|-----3--X--3-----3--X--3-----3--X--3-----3--X--3--|
G|-----5--X--5-----5--X--5-----5--X--5-----5--X--5--|
D|--------X-----------X-----------X-----------X-----|
A|--0-----X-----0-----X-----0-----X-----0-----X-----|
E|--------X-----------X-----------X-----------X-----|

(wait on the porch…)
e|----------X--------------X--------------X--------------X------|
B|------10--X--10------10--X--10------10--X--10------10--X--10--|
G|------12--X--12------12--X--12------11--X--11------11--X--11--|
D|----------X--------------X--------------X--------------X------|
A|----------X--------------X--------------X--------------X------|
E|--10------X------10------X------10------X------10------X------|


(right…)
e|--------X-----------X-----------X-----------X-----|
B|-----8--X--8-----8--X--8-----8--X--8-----8--X--8--|
G|-----9--X--9-----9--X--9-----9--X--9-----9--X--9--|
D|--------X-----------X-----------X-----------X-----|
A|--------X-----------X-----------X-----------X-----|
E|--8-----X-----8-----X-----8-----X-----8-----X-----|

(flight…)
e|--------X-----------X-----------X-----------X-----|
B|-----3--X--3-----3--X--3-----3--X--3-----3--X--3--|
G|-----4--X--4-----4--X--4-----4--X--4-----4--X--4--|
D|--------X-----------X-----------X-----------X-----|
A|--------X-----------X-----------X-----------X-----|
E|--3-----X-----3-----X-----3-----X-----3-----X-----|

(check the weather…)
e|--------X-----------X-----------X-----------X-----|
B|-----3--X--3-----3--X--3-----3--X--3-----3--X--3--|
G|-----5--X--5-----5--X--5-----5--X--5-----5--X--5--|
D|--------X-----------X-----------X-----------X-----|
A|--0-----X-----0-----X-----0-----X-----0-----X-----|
E|--------X-----------X-----------X-----------X-----|

(wanna know…)
e|----------X--------------X--------------X--------------X------|
B|------10--X--10------10--X--10------10--X--10------10--X--10--|
G|------12--X--12------12--X--12------12--X--12------12--X--12--|
D|----------X--------------X--------------X--------------X------|
A|----------X--------------X--------------X--------------X------|
E|--10------X------10------X------10------X------10------X------|

(tonight…)
e|--------X-----------X-----------X-----------X-----|
B|-----3--X--3-----3--X--3-----3--X--3-----3--X--3--|
G|-----4--X--4-----4--X--4-----4--X--4-----4--X--4--|
D|--------X-----------X-----------X-----------X-----|
A|--------X-----------X-----------X-----------X-----|
E|--3-----X-----3-----X-----3-----X-----3-----X-----|

(right…)
e|--------X-----------X-----------X-----------X-----|
B|-----3--X--3-----3--X--3-----3--X--3-----3--X--3--|
G|-----5--X--5-----5--X--5-----5--X--5-----5--X--5--|
D|--------X-----------X-----------X-----------X-----|
A|--3-----X-----3-----X-----3-----X-----3-----X-----|
E|--------X-----------X-----------X-----------X-----|

Chorus (Two wrongs…)
e|--------X-----------X-----------X-----------X-----|
B|-----3--X--3-----3--X--3-----3--X--3-----3--X--3--|
G|-----4--X--4-----4--X--4-----4--X--4-----4--X--4--| X2
D|--------X-----------X-----------X-----------X-----|
A|--------X-----------X-----------X-----------X-----|
E|--3-----X-----3-----X-----3-----X-----3-----X-----|


e|--------X-----------X-----------X-----------X-----|
B|-----3--X--3-----3--X--3-----3--X--3-----3--X--3--|
G|-----5--X--5-----5--X--5-----5--X--5-----5--X--5--| X2
D|--------X-----------X-----------X-----------X-----|
A|--3-----X-----3-----X-----3-----X-----3-----X-----|
E|--------X-----------X-----------X-----------X-----|

Interlude (repeat 3X)
e|--------X-----------X-----------X-----------X-----|
B|-----8--X--8-----8--X--8-----7--X--7-----7--X--7--|
G|-----0--X--0-----0--X--0-----0--X--0-----0--X--0--|
D|-----9--X--9-----9--X--9-----7--X--7-----7--X--7--|
A|--7-----X-----7-----X-----5-----X-----5-----X-----|
E|--------X-----------X-----------X-----------X-----|

e|--------X-----------X-----------X-----------X-----|
B|-----5--X--5-----5--X--5-----5--X--5-----5--X--5--|
G|-----0--X--0-----0--X--0-----0--X--0-----0--X--0--|
D|-----5--X--5-----5--X--5-----5--X--5-----5--X--5--|
A|--3-----X-----3-----X-----3-----X-----3-----X-----|
E|--------X-----------X-----------X-----------X-----|

Verse 3 (I called…)
e|----------------|----------------|----------------|----------------|
B|--1-------------|--1-------------|--1-------------|--1-------------|
G|--2-------------|--4-------------|--2-------------|--4-------------|
D|----------------|----------------|----------------|----------------|
A|----------------|----------------|----------------|----------------|
E|--3-------------|--3-------------|--3-------------|--3-------------|

(the line…)
e|----------------|----------------|----------------|----------------|
B|--1-------------|--1-------------|--1-------------|--1-------------|
G|--2-------------|--4-------------|--2-------------|--4-------------|
D|----------------|----------------|----------------|----------------|
A|--3-------------|--3-------------|--3-------------|--3-------------|
E|----------------|----------------|----------------|----------------|

(And I know…)
e|----------------|----------------|----------------|----------------|
B|--1-------------|--1-------------|--1-------------|--1-------------|
G|--2-------------|--4-------------|--2-------------|--4-------------|
D|----------------|----------------|----------------|----------------|
A|----------------|----------------|----------------|----------------|
E|--3-------------|--3-------------|--3-------------|--3-------------|


(dying day…)
e|--------X-----------X--------X-----------X-----|
B|-----1--X--1-----1--X-----1--X--1-----1--X--1--|
G|-----2--X--2-----2--X-----4--X--4-----4--X--4--| X2
D|--------X-----------X--------X-----------X-----|
A|--3-----X-----3-----X--3-----X-----3-----X-----|
E|--------X-----------X--------X-----------X-----|

Pre-Chorus 3 (‘Cause I can't wait…)
e|--------X-----------X-----------X-----------X-----|
B|-----3--X--3-----3--X--3-----3--X--3-----3--X--3--|
G|-----5--X--5-----5--X--5-----5--X--5-----5--X--5--|
D|--------X-----------X-----------X-----------X-----|
A|--0-----X-----0-----X-----0-----X-----0-----X-----|
E|--------X-----------X-----------X-----------X-----|

(so I can say…)
e|--------X-----------X-----------X-----------X-----|
B|-----8--X--8-----8--X--8-----8--X--8-----8--X--8--|
G|-----9--X--9-----9--X--9-----9--X--9-----9--X--9--|
D|--------X-----------X-----------X-----------X-----|
A|--------X-----------X-----------X-----------X-----|
E|--8-----X-----8-----X-----8-----X-----8-----X-----|

(There's no substitute…)
e|--------X-----X-----X-----X-----X-----X-----|
B|--------X-----X--3--X-----X-----X-----X--3--|
G|-----4--X--5--X-----X--4--X--4--X--5--X-----| X2
D|--------X-----X-----X-----X-----X-----X-----|
A|--------X-----X-----X-----X-----X-----X-----|
E|--3-----X-----X-----X--3--X-----X-----X-----|

Outro Chorus (It's alright…) (Repeat as necessary)
e|--------X-----------X-----------X-----------X-----|
B|-----3--X--3-----3--X--3-----3--X--3-----3--X--3--|
G|-----4--X--4-----4--X--4-----4--X--4-----4--X--4--|
D|--------X-----------X-----------X-----------X-----|
A|--------X-----------X-----------X-----------X-----|
E|--3-----X-----3-----X-----3-----X-----3-----X-----|

e|--------X-----------X-----------X-----------X-----|
B|-----3--X--3-----3--X--3-----3--X--3-----3--X--3--|
G|-----5--X--5-----5--X--5-----5--X--5-----5--X--5--|
D|--------X-----------X-----------X-----------X-----|
A|--3-----X-----3-----X-----3-----X-----3-----X-----|
E|--------X-----------X-----------X-----------X-----|
Добавлено: 26.03.2012
Другие материалы по этой песне:
  • Аккорды и текст

Страница создана 26.03.2012
http://primanota.ru/john-mayer/splite-screen-sadness-chords.htm
Привет, Гость.
Предлагаем пройти революционный курс по гитаре.
Подарок от PrimaNota.Ru, забирай!