PrimaNota.ru - самый крупный в мире бесплатный архив песенных текстов, аккордов, табулатур и нот


John Mayer - Come When I Call Live - таба, бас-таба, видео

Регистрация Запомнить меня
Войти через:  Facebook Google Twitter Vk Yandex Mail.ru

John Mayer - Come When I Call Live - таба, бас-таба, видео

Печатать
Просмотров: 70
Lots of credit to Chamara Liyanage for starting this tab. 
I found some mistakes that I wanted to fix and decided to redo the whole 
tab based on the Where the Light Is performance. Credit is also due to Thomas Gilbert 
who has a tutorial on the whole song on youtube. Hope you enjoy!

Intro
e|---5/7-5----------------x------3-----------------------------------|
B|----------5b6b5--3------x--3---3h5-3----3---3-----------------3----|
G|---------------------5--x--3--------3---3b4-3b4---------------2----|
D|------------------------x--2---------5------------5-----------3==--|
A|------------------------x--3-----------------------5-3-2\1/2--2----|
E|------------------------x------------------------------------------|

e|----------------------------------------|
B|---3---------3-------------------3------|
G|---3b5-------3h4-----------------2------|
D|---------5---------5--3------4---3------|
A|-------------------------5---3---x------|
E|---------------------------------3------|

Verse
e|--------------------------------------------------------|
B|-----5-5-x----3-3-x----3-3-x-----3-3-x----3-3-x---------|
G|-----5-5-x----3-3-x----3-3-x-----3-3-x----3-3-x---------|
D|-----4-4-x----2-2-x----2-2-x-----2-2-x----2-2-x---------|
A|-----5-5-x----3-3-x----3-3-x-----3-3-x----3-3-x---------|
E|--------------------------------------------------------|

Fill one
e|-------------------------------------------------------------|
B|-----------5--3----3----3-------------------------4--4--3----|
G|------3h4-----3----3h4--3h4-----------------------4--4--3----|
D|---5------------5-------------5---------------5---3--3--2----|
A|---------------------------------5--3--5--2-------4--4--3----|
E|-------------------------------------------------------------|

Verse x 1

Fill two
e|--------------------------------------------------------------------|
B|-----------5-3h5p3----------3--6--3--------5------3--------6---5----|
G|------3h4-----------5-3h4-------------5----5------3h4------6---5----|
D|----5-----------------------------------5-----5--------5---5---4----|
A|---5-------------------------------------------------------6---5----|
E|--------------------------------------------------------------------|

Verse x 1

Fill three
e|-------------------------------------------------------------|
B|---6-3h5p3--------------3----3---------x--5-5-5--------------|
G|-----------5-3h4p3------3h4--3h4-------x--5-5-5--------------|
D|--------------------5-------------5----x--4-4-4--------------|
A|-------------------------------------5-x--5-5-5--------------|
E|-------------------------------------------------------------|

Verse x 1

Fill four
e|---6--7--6--7-3h5p3----6--7--------6h7p6----------------------|
B|---5--6--5--6-------5--5--6--8----------8------------3--------|
G|---6--7--6--7----------6--7-----7----------7\5\3-----3--------|
D|--------------------------------------------------5--3--5p3---|
A|--------------------------------------------------------------|
E|--------------------------------------------------------------|

Verse x 1

Fill five
e|---6--7--6--7-3h5p3-------------------------------------|
B|---5--6--5--6-------5--------------3-----------6--5-----|
G|---6--7--6--7---------3-4-3-4---5--------3h4---6--5-----|
D|----------------------2-3-2-3---------5--------5--4-----|
A|-----------------------------------------------6--5-----|
E|--------------------------------------------------------|

Verse x 1

Fill six
e|----------------------------------------------------------|
B|--------3-------5----3--------------6--5------------------|
G|--4-----3h4-----5----3h4------------6--5------------------|
D|--3---5------3-----5------5---------5--4------------------|
A|--x-------------------------5--3----6--5------------------|
E|--3-------------------------------------------------------|

Chorus
e|-x------------3--x-----------------------------------------------------------|
B|-3------------3---x--6p3--------3----5/6-6-6--5/6-6-6--5/6-6-6------------3--|
G|-2------------4----x-----5--4---3----6/7-7-7--6/7-7-7--6/7-7-7--7\5p3-----3--|
D|-3--------------------------3------------------------------------------5--2--|
A|-x----5---7-----------------x---------------------------------------------3--|
E|-3--------------------------3------------------------------------------------|

Verse x 1

Fill seven
e|--------------------------------------------------------------|
B|-----------3---5p3-6p3---------------3----------------5---5---|
G|--------3h4-------------6\5p3----5b6p3h4---~----------6---5---|
D|-----5------------------------5-----------5\3---------5---4---|
A|--5h7-----------------------------------------3b4p1---6---5---|
E|--------------------------------------------------------------|

Verse x 1 (keep strumming chord until solo)

Solo
e|---------------------------------------------------------|
B|-------8-8---8-10b-----8~-8-----8-8--10b---8--8----------|
G|----/9-----9--------9---------9--------------------------|
D|---------------------------------------------------------|
A|---------------------------------------------------------|
E|---------------------------------------------------------|

e|----11b--------------------------8-----------------------------|
B|----------11p10p8---8---8---11b-----11---10-8h10p8------8------|
G|------------------9----------------------------------9-----9---|
D|---------------------------------------------------------------|
A|---------------------------------------------------------------|
E|---------------------------------------------------------------|

e|---------8---------------------8------------------15\----|
B|----11b-----11--10-8h10p8---8-10b--10--8-----8~---18\----|
G|--------------------------9---------------9-------16\----|
D|--------------------------------------------------15\----|
A|---------------------------------------------------------|
E|---------------------------------------------------------|

e|----------------------------------------------------15-----------------15--------|
B|------3----5-----5-------3-----------------15--18b------15h18p15-----------------|
G|------3h4--5-----5-------3h4--------------------------------------17-------15b---|
D|---5-----------5-------5-------5-------------------------------------------------|
A|----------------------------------5--3--2----------------------------------------|
E|---------------------------------------------------------------------------------|

e|---------3---------------------------------------------------------------------|
B|----3-6b----3h6p3-----3----3----3---------5/6----------------------------------|
G|------------------5---3----3h4--3h4-------6/7---6\5--6\5p3---------------------|
D|------------------------5-------------5----------------------5-----------3h5---|
A|-------------------------------------------------------~--------3h4p3----------|
E|-----------------------------------------------------------------------6-------|

e|------------------15---15------------------------------------15----15---|
B|--15-15-15-18-18b---15---15----------15\-----------15-15-18b----18b-----|
G|------------------------------18\17--15\---17---------------------------|
D|----------------------------------------------14------------------------|
A|------------------------------------------------------------------------|
E|------------------------------------------------------------------------|

e|------15-----15-17-15h16p15-----15-----15-----18b~--18-15-----------------|
B|--18b-----18b----------------18-----15----15--------------18-15-----------|
G|-----------------------------------------------------------------18\17----|
D|--------------------------------------------------------------------------|
A|--------------------------------------------------------------------------|
E|--------------------------------------------------------------------------|

e|-------------15\----------------------------------------------------------|
B|-------------15\----------18-17--15h17p15---------------------------------|
G|---15--------15\---------x-----------------17-15h16p15--------------------|
D|------17-----14\--------x-------------------------------17-15h17p15-------|
A|---------17----------------------------------------------------------17---|
E|--------------------------------------------------------------------------|

e|--------------------------------------------/6-6--/18-18--/6-6--/18-18-18-18---|
B|--------------------------------------------/5-5--/17-17--/5-5--/17-17-17-17---|
G|--------------------------------------------/6-6--/18-18--/6-6--/18-18-18-18---|
D|----------------------17---17---17---15\---------------------------------------|
A|--15h17p15----13/14-----17--17-------------------------------------------------|
E|-------------------------------------------------------------------------------|

e|---6---3h5p3-----3--3----------------------------|
B|--------------5--------3---6/5-------------------|
G|---------------------------6/5-----3b------------|
D|--------------------------------5------5--3------|
A|----------------------------------~----------5---|
E|-------------------------------------------------|



Chorus
e|--x------------3--------------3-------------------------------------------------------|
B|--3------------3--------------3---------------5/6-6-6--5/6-6-6--5/6-6-6------------5--|
G|--2------------4--------------4---------------6/7-7-7--6/7-7-7--6/7-7-7--7/5p3-----5--|
D|--3------------x--------------x-------------------------------------------------5--4--|
A|--x--------5h7-x----------5h7-x----------5h7---------------------------------------5--|
E|--3------------3--------------3-------------------------------------------------------|

Verse x 1


Fill eight
e|-----------------------------------------------------------------------|
B|--------------------------------------------------------------6--5-----|
G|-----------7--------------------------------------------------6--5-----|
D|------5----8h9---5/3-----3/5-p-3------------------------------5--4-----|
A|--5h7---7-------------5-----------5--3b4b3/1---3h5------------6--5-----|
E|----------------------------------------------------6p3\1/3------------|

Verse x 1

Fill nine
e|-------------------------------------------------|
B|---------------------------3---------------------|
G|---------------------------3h4-------------------|
D|-----5------5-----5-----5------h5p3--------------|
A|--5h7----5h7---5h7---5h7-----------5--3b---------|
E|------------------------------------------6b-----|

Verse x 1 

Fill ten
e|-----------------------------------------------------------------|
B|-----------------------------------------------------------------|
G|----------------3b~------------------3----5b6p3------------------|
D|-----3h5---3h5------------3h5---3h5---------------5p3------------|
A|---5-----5--------------5-----5--------------------------5p4p3~--|
E|-----------------------------------------------------------------|

Verse x 1

Fill eleven
e|-----------------------------------------6p3-----------------|
B|-----------------------------6p3------------------------6----|
G|----------------3---5b6b5--------6p5p3-------6p5p3------6----|
D|-----3h5---3h5------------5------------5-----------5----5----|
A|---5-----5----------------------------------------------6----|
E|-------------------------------------------------------------|

Verse x 1

Outro
e|---6--3h5p3---3-----------------------9---10----15-----|
B|---5--------5---3----------3----------9---10----14-----|
G|---6--------------6\5------3h4---0----8---9-----14-----|
D|-----------------------5---------0----7---8\7---12-----|
A|-------------------------------------------------------|
E|-------------------------------------------------------|
Добавлено: 30.11.2015
Другие материалы по этой песне:
  • Аккорды и текст

Страница создана 12.09.2015
http://primanota.ru/john-mayer/come-when-i-call-live-chords.htm
Привет, Гость.
Предлагаем пройти революционный курс по гитаре.
Подарок от PrimaNota.Ru, забирай!