PrimaNota.ru - самый крупный в мире бесплатный архив песенных текстов, аккордов, табулатур и нот


John Mayall And The Bluesbreakers - Double Trouble - таба, видео

Регистрация Запомнить меня
Войти через:  Facebook Google Twitter Vk Yandex Mail.ru

John Mayall And The Bluesbreakers - Double Trouble - таба, видео

Печатать
Просмотров: 85
-------------------------------------------------------------------------------
        Double Trouble - John Mayall & The Blues Breakers(feat Peter Green)
-------------------------------------------------------------------------------
Tabbed by:metal_wecaste
E-mail:

Tuning: Standard

  ===========================================================================

  --------------------------[[     INTRO     ]]------------------------------

  ===========================================================================



e|-----7---------------------------------------------------------------------|
B|----7----10/12~~~~~~~----------10------------------------------------------|
G|--b9-----------------------7-------b9--9--7--------------------------------|
D|------------------------9----9-------------9--9~~~7---7~~~-------7/9~~~~---|
A|----------------------------------------------------9------b7p5------------|
E|---------------------------------------------------------------------------|

e|--b10--b10-10~~~--7------------------------------7--10--12~~b12------------|
B|-------------------7------------7-------------10---------------12----------|
G|--------------------b9-9~~p7h9---7h9---------------------------------------|
D|---------------------------------------------------------------------------|
A|---------------------------------------------------------------------------|
E|---------------------------------------------------------------------------|

e|---10h12p10p8~~~~----------------------------------------------------------|
B|-----------------10p7/10~~~~~------7h10p7----------------------------------|
G|-----------------------------------7-------b9-9p7h9h12p7-------------------|
D|-----------------------------------9--------------------9~~~~7-------------|
A|--------------------------------------------------------------9\7p5--------|
E|---------------------------------------------------------------------------|

e|-12/14-14~~~---b16~~~16-13-------------------------------------------------|
B|---------------------------b15-15--------------------10--------------------|
G|---------------------------------17-15/17~~~------------b9--9-7------------|
D|---------------------------------------------------9-----------9-9~~~~-----|
A|---------------------------------------------------------------------------|
E|---------------------------------------------------------------------------|

  

   =========================================================================

   -----------------------{{     VERSE     }}-------------------------------

   =========================================================================


                   ....I..  ..night....    ...double trouble.....


e|---------------------------------------------------------------------------|
B|-----10---7---7~~~-----10--7----------------7-10----7----------------------|
G|------------9---------------9-7~~~~---------7--------9---7-----------------|
D|---9-----------------9-------9--------------9-------------9--9~~~~---------|
A|---------------------------------------------------------------------------|
E|---------------------------------------------------------------------------|


  ....hard to keep....   ...havin double trouble.....  ....Hey.....hey.....


e|---b10---10--7-------------------------------------------------------------|
B|--------------10-10/12~~~~-------------------------------------------------|
G|--------------------------------b9-9-7h9----------------7--9/11--7h9~~~~~--|
D|----------------------------------------9-9~~~~~~~-------------------------|
A|---------------------------------------------------------------------------|
E|---------------------------------------------------------------------------|


        ...........try.............                   ......yes in this......


e|------------------14-------------------------------------------------------|
B|------------------15--15~~~~-----------------------------------------------|
G|---b9-b9p7--------16------------7-9-b9-9-7---------------------------9/11--|
D|----------9~~~~~~--------------------------9--9~~~7------------------------|
A|----------------------------------------------------9\7p5~~~---------------|
E|---------------------------------------------------------------------------|


                             ...wear...


e|--b10--10-7----------------------------7-10p7------------------------------|
B|-----------10----10/12~~~~~------------7------10p7-------------------------|
G|------------------------------9b11-----9----------b9-7h9b9-7h9-7-----------|
D|----------------------------------------------------------------9-9-7------|
A|---------------------------------------------------------------------9\7p5~|
E|---------------------------------------------------------------------------|



  ===========================================================================
  ***************************************************************************
  ===========================================================================


 ( Repeat x12 )     ( Repeat x6 )        ( Repeat x4 )    
    

e|---14------------------7------------------9-----------------14~~~~~~~------|
B|---15------------------8-----------------10-----------------15~~~~~~~------|
G|---16------------------9-----------------11-----------------16~~~~~~~------|
D|---------------------------------------------------------------------------|
A|---------------------------------------------------------------------------|
E|---------------------------------------------------------------------------|


  ===========================================================================
  ***************************************************************************
  ===========================================================================





   =========================================================================

   -----------------------{{     VERSE     }}-------------------------------

   =========================================================================



                ...Your mother....        ...I got no place to go...


e|------------------b10-10--7------------------------------------------------|
B|---10--7-------------------7-----------------------------------------------|
G|---------9-11~~~------------9/11~~~~-------7-9-b9-7-9-b9p7-----------------|
D|----------------------------------------------------------9-9-7-7~~--------|
A|---------------------------------------------------------------9-----------|
E|---------------------------------------------------------------------------|


  ...trouble's taken me....                              ...show...



e|--b12-12--10---------------------------------------------------------------|
B|------------12-12----10-7-10-7---------7--10-7-10-7----------------10/12~~~|
G|-------------------------------b9-9-7--7-----------b9-9-7------------------|
D|---------------------------------------9------------------9-9~~~-----------|
A|---------------------------------------------------------------------------|
E|---------------------------------------------------------------------------|


 ...Hey,hey...        ...u try...         
                

e|---------------------------------------------------------------------------|
B|-b10-10--7-----------------------------------------------------------------|
G|----------7h9~~~----------7--b9--b9-b9-b9-b9-b9--7-------------------------|
D|------------------------9-------------------------9~~~~~-------------------|
A|---------------------------------------------------------------------------|
E|---------------------------------------------------------------------------|


  ...no lie...


e|---------------------b17~~~~~b17---17-14--14-------------------------------|
B|-----b17~~~~b20~~~~~--------------------17--17-15~~~~~---------------------|
G|---------------------------------------------------------------------------|
D|---------------------------------------------------------------------------|
A|---------------------------------------------------------------------------|
E|---------------------------------------------------------------------------|


 ....livin in this...     ...millionaires....


e|---12/14-------------------------------------------------------------------|
B|---------------------------------------------------------------------------|
G|---------------------------------------7-9-b9--7-9~~~----------------------|
D|-------------------------------------9-------------------------------------|
A|---------------------------------------------------------------------------|
E|---------------------------------------------------------------------------|


...it's hard for me to keep decent clothes to wear.....


e|-------------10/12---10--7-------------------------------------------------|
B|--------------------------10-10/12---10-7-10-7----------10-----------------|
G|----------------------------------------------b9-9-7~~~~---b9-9-7----------|
D|-----------------------------------------------------------------9~~7------|
A|---------------------------------------------------------------------9p7\5~|
E|---------------------------------------------------------------------------|



  ===========================================================================
  ***************************************************************************
  ===========================================================================


 ( Repeat x12 )     ( Repeat x6 )        ( Repeat x4 )    
    

e|---14------------------7------------------9-----------------14~~~~~~~------|
B|---15------------------8-----------------10-----------------15~~~~~~~------|
G|---16------------------9-----------------11-----------------16~~~~~~~------|
D|---------------------------------------------------------------------------|
A|---------------------------------------------------------------------------|
E|---------------------------------------------------------------------------|


  ===========================================================================
  ***************************************************************************
  ===========================================================================

  


  ===========================================================================

  -------------------------[[     OUTRO     ]]-------------------------------

  ===========================================================================



e|---------------------------------------------------------------------------|
B|----10--7-----------10--7-----------10--7---7~~~~~---------10--7----7~~~---|
G|---------9-11~~~~~-------9-11~~~~--------9--7~~~~~---------------9--7~~~---|
D|--9---------------9----------------9--------9~~~~~--------9---------9~~~---|
A|---------------------------------------------------------------------------|
E|---------------------------------------------------------------------------|


************************************

| /   slide up
| \   slide down
| h   hammer-on
| p   pull-off
| ~   vibrato
| +   harmonic
| x   Mute note
| b   Full Note Bend
| hb  Half note bend
| pb  Pre-bend
| br  Bend release
| pbr Pre-bend release
| brb Bend release bend

************************************
Добавлено: 02.05.2016
Вам также может быть интересно:
Другие материалы по этой песне:
  • Аккорды и текст

Страница создана 02.05.2016
http://primanota.ru/john-mayall-and-the-bluesbreakers/double-trouble-chords.htm
Привет, Гость.
Предлагаем пройти революционный курс по гитаре.
Подарок от PrimaNota.Ru, забирай!