PrimaNota.ru - самый крупный в мире бесплатный архив песенных текстов, аккордов, табулатур и нот


John Mayall And The Bluesbreakers - Whatd I Say - таба, видео

Регистрация Запомнить меня
Войти через:  Facebook Google Twitter Vk Yandex Mail.ru

John Mayall And The Bluesbreakers - Whatd I Say - таба, видео

Печатать
Просмотров: 73
Авторы музыки: Ray Charles
Авторы текста: Ray Charles
-----------------------------------------------------------------
        What'd I Say - John Mayall & The Bluesbreakers
-----------------------------------------------------------------

Tabbed By : Aeonoptic
e-mail: aeonoptic@gmail.com

Tuning: EADGBe
Organ intro

  E7                                      A7                  E7                  B7        A7
E|---------|---------|---------|---------|---------|---------|---------|---------|---------|---------|
B|---------|---------|---------|---------|---------|---------|---------|---------|---------|---------|
G|---------|---------|---------|---------|----0-2p0|----0-2p0|---------|---------|----2-4p2|----0-2p0|
D|----0-2p0|----0-2p0|----0-2p0|----0-2p0|--2------|--2------|----0-2p0|----0-2p0|--4------|--2------|
A|--2------|--2------|--2------|--2------|0--------|0--------|--2------|--2------|2--------|0--------|
E|0--------|0--------|0--------|0--------|---------|---------|0--------|0--------|---------|---------|

  E7
E|---------|---------|
B|---------|---------|
G|---------|---------|
D|----0-2p0|----0-2p0|
A|--2------|--2------|
E|0--------|0--------|

Guitar enters  

  E7                                            A7                     E7               B7     A7
E|-------------|---------|-------------|-------|---------------|------|--------|-------|-------|-------|
B|12b----14-12b|---------|12b----14-12b|-------|15-------------|------|12b--12b|-------|-------|-------|
G|12b----14-12b|---------|12b----14-12b|-------|14h16----14-12~|------|12b--12b|-------|11~--9~|-------|
D|----14-------|---------|----14-------|-------|------14-------|------|--------|-------|-------|-------|
A|-------------|---------|-------------|-------|---------------|------|--------|-------|-------|-------|
E|-------------|---------|-------------|-------|---------------|------|--------|-------|-------|-------|

  E7
E|---------|--------|
B|12b--12b\|--------|
G|12b--12b\|--------|
D|---------|--------|
A|---------|--------|
E|---------|--------|

E7
Tell your momma
Tell your pa
Gonna move you down to Arkansaw
Alright
A7
Baby you what'd I say
E7          B7 A7
Woah alright
E7
Baby you what'd I say

  E7                            A7                  E7                 B7    A7   E7
E|7---|7---|7---|--------------|-----------|-------|-----------|------|-----|----|---------|---------|
B|9---|9---|9---|--------------|-----------|-------|12b-----12b|------|-----|----|12b---12b|---------|
G|7---|7---|7---|--------------|-----------|-------|12b--14-12b|------|11--9|----|12b---12b|---------|
D|9---|9---|9---|--------------|11----11-11|-------|-----------|------|-----|----|---------|---------|
A|7---|7---|7---|----5---------|12-12------|-------|-----------|------|-----|----|---------|---------|
E|----|----|----|5h7---5h7-3b-0|-----------|-------|-----------|------|-----|----|---------|---------|

E7
Oh baby
Oh baby, alright
A7                E7
Baby what'd I say
B7            A7  
Baby what'd I say
E7
Oh right yeah

Played identically to the first verse except the 4th bar is:
E|--------------|
B|--------------|
G|--------------|
D|2-0-----------|
A|----2-1-0-----|
E|----------3b-0|

Solo
  E7
E|------------------------------|--------------|-----------------|------------------|
B|------------------------------|--------------|-----------------|------------------|
G|------------12--------------12|--------------|---------------12|12----12----------|
D|12--------------12------------|12------------|12---------------|---14----14-------|
A|---14-13-12--------14-13-12---|---14p12\10---|---14-12-14-12---|------------14p12\|
E|------------------------------|------------12|-----------------|------------------|

  A7               E7                  B7        A7                    E7
E|----------|-----|---------|----7----|---------|---------------------|------------------|--------------|
B|7br9------|-----|7b9-7-5-7|7b9---5~~|7-5-7-7b8|8b10-10b12-10-8------|------------------|--------------|
G|-----6-6~~|-----|---------|---------|---------|----------------9-7-9|7b9--9b12--9-7-9-7|9-7--------7-9|
D|----------|-----|---------|---------|---------|---------------------|------------------|----9-9--9----|
A|----------|-----|---------|---------|---------|---------------------|------------------|--------------|
E|----------|-----|---------|---------|---------|---------------------|------------------|--------------|

Organ Solo
Drum Solo

E7
Baby what I say
Yeah, What I Say
A7
Baby what I say
E7
Baby what I say
B7         A7
Oh, what I say
E7
Baby what I say

  E7                                  A7                     E7
E|------------|---------|------------|------------|---------|------------|---------|
B|------------|---------|------------|------------|---------|------------|---------|
G|------------|---------|------------|---------2-0|--4---0-2|------------|---------|
D|---------2-0|--4---0-2|---------2-0|-------2----|2---2----|---------2-0|--4---0-2|
A|-------2----|2---2----|-------2----|0--3-4------|---------|-------2----|2---2----|
E|0--3-4------|---------|0--3-4------|------------|---------|0--3-4------|---------|

  B7           A7            E7
E|------------|-------------|------------|---------|
B|------------|-------------|------------|---------|
G|------------|-------------|------------|---------|
D|-------4-6-4|--------4-6-4|2-0---------|2p0------|
A|---5/6------|--3/4-6------|-----2-1-0--|----2-2~~|
E|7-----------|5------------|-----------3|---------|

E7
Well yeah, 
Yeah, yeah
A7
Yeah yeah yeah,
E7
Yeah yeah yeah
B7 A7 
Alright baby

  E7                                          A7                    E7
E|------------|---------|----------|---------|-----------|---------|------------|---------|
B|------------|---------|----------|---------|-----------|---------|------------|---------|
G|------------|---------|----------|---------|--------2-0|--4---0-2|------------|---------|
D|---------2-0|--4---0-2|---------2|2-0------|------2----|2---2----|---------2-0|--4---0-2|
A|-------2----|2---2----|-------2--|----2-1-0|--3-4------|---------|-------2----|2---2----|
E|0--3-4------|---------|0--3-4----|---------|5----------|---------|0--3-4------|---------|

  B7           A7              E7
E|------------|---------------|----------------|--------------------------------------|
B|------------|---------------|----------------|--------------------------------------|
G|------------|---------------|----------------|---4--6--4--7--6--4-------------------|
D|-------4-6-4|----------2-4-2|2-2-2-2-2--0-0-0|---3--5--3--6--5--3-------------------|
A|---5/6------|---3/4-6-------|----------------|2--5--7--5--8--7--5--2---9--6----6---9|
E|7-----------|5--------------|----------------|0--3--5--3--6--5--3--0--10--7----7--10|

  trem
E|-------|
B|9----9\|
G|7----7\|
D|6----6\|
A|7----7\|
E|-------|


| /  slide up
| \  slide down
| h  hammer-on
| p  pull-off
| ~  vibrato
| +  harmonic
| x  Mute note
Добавлено: 02.05.2016
Другие материалы по этой песне:
  • Аккорды и текст

Страница создана 02.05.2016
http://primanota.ru/john-mayall-and-the-bluesbreakers/whatd-i-say-chords.htm
Привет, Гость.
Предлагаем пройти революционный курс по гитаре.
Подарок от PrimaNota.Ru, забирай!