PrimaNota.ru - самый крупный в мире бесплатный архив песенных текстов, аккордов, табулатур и нот


John Butler Trio - Busted - таба, видео

Регистрация Запомнить меня
Войти через:  Facebook Google Twitter Vk Yandex Mail.ru

John Butler Trio - Busted - таба, видео

Печатать
Просмотров: 191
Уроки эстрадного вокала в Санкт-Петербурге
Авторы музыки: John Butler

John Butler Trio- Busted (John Butler [1998])
Open C - CGCGCE 


 Intro 

|-----------|------------------|-------------------|---------------------| 
|-----------|----------0-----7s|=9---9-9-9-9-9s7---|---------0-----10s12-| 
|-7s===9----|-0--7s9s7---0-----|-----------------7-|---7s9s7---0---------| 
|-----------|--------------0---|---0---------------|-0-----------0-------| 
|-----------|------------------|-------------------|---------------------| 
|-0---------|------------------|-------------------|---------------------| 


|-------: 
|-------: 
|-12----: 
|-------: 
|-------: 
|-------: 


 Verse 1 
|-----------------|-----------------|-------------|----------------| 
|-----------------|-----------------|-------7-----|-7-7----7\------| 
|-7s9-(9)--9------|-9----0-7s9-7-0--|-/7----7--7--|-7-7-7--7\------| 
|----------0--0---|----0------------|--7-------7--|-----7----------| 
|-----------------|-----------------|-------------|----------------| 
|-0--------0----0-|-----------------|-/7----7-----|-----7-------0--| 


|---------------|-----------------|-^0------/12--10----|------------------| 
|--------5----5-|-----5-----5-----|-^0----0---------12-|-12----12---------| 
|-3s5----5--5---|-5-----5-----5---|-^0-----------------|----12-12---------| 
|-3s5-------5---|---5-----5-----5-|-^0--0--------------|---------------0--| 
|---------------|-----------------|-^0-----------------|------------------| 
|--------5------|-----------------|-^0-----------------|-------------0----| 


|-----------------|-----------------|-------------|----------------| 
|-----------------|-----------------|-------7-----|-7-7----7\------| 
|-7s9-(9)--9------|-9----0-7s9-7-0--|-/7----7--7--|-7-7-7--7\------| 
|----------0--0---|----0------------|--7-------7--|-----7----------| 
|-----------------|-----------------|-------------|----------------| 
|-0--------0----0-|-----------------|-/7----7-----|-----7-------0--| 


|---------------|-----------------|----------------|---------------| 
|--------5----5-|-----5-----5-----|---------9------|-------7-------| 
|-3s5----5--5---|-5-----5-----5---|-5s9--9-----9---|-7--------7----| 
|-3s5-------5---|---5-----5-----5-|-5s9----------9S|=7--7-------7S=| 
|---------------|-----------------|----------------|---------------| 
|--------5------|-----------------|-5s9------------|-7-------------| 


|--------------|-----------------|----------------|-----------------| 
|-------5----5-|-----5-----5-----|---------9------|-------7-7-------| 
|-5--------5---|-5-----5-----5---|-5s9--9-----9---|-7---------7-----| 
|-5--5---------|---5-----5-----5-|-5s9----------9S|=7--7--------7S==| 
|--------------|-----------------|----------------|-----------------| 
|-5------------|-----------------|-5s9------------|-7---------------| 


|--------------|-----------------|----------------|---------------| 
|-------5----5-|-----5-----5-----|---------9------|-------7-------| 
|-5--------5---|-5-----5-----5---|-5s9--------9---|-7--------7----| 
|-5--5---------|---5-----5-----5-|-5s9--9-------9S|=7--7-------7--| 
|--------------|-----------------|----------------|---------------| 
|-5------------|-----------------|-5s9------------|-7-------------| 


|-0----0-/12--------|-------------------------| 
|-0-----------12----|------12-------12--------| 
|-0--------------12-|-(12)----12-------12-----| 
|-0--0--------------|------------12-------12--| 
|-0-----------------|-------------------------| 
|-0-----------------|-------------------------| 


|--------14s12-------|------------------| 
|------0-------12----|---12-----12------| 
|-----------------12-|----------------0-| 
|----0---------------|------12------0---| 
|--------------------|------------------| 
|-0------------------|-0--------12------| 


|----------------|---0-----0-------|-------------------|-----------------|| 
|--------------0-|-----0-----0-----|-------0-----0-----|-0-----0---------|| 
|----------------|---------------0-|-7s9s7---0-----0---|---0----------0--|| 
|------0-5s7-0---|-------0---------|-----------0-----0-|-----0------0----|| 
|----------------|-----------------|-------------------|-----------------|| 
|-0--0-----------|-0-----------0---|-------------------|---------0-------|| 


 Verse 2 
|-----------------|-----------------|-------------|----------------| 
|-----------------|-----------------|-------7-----|-7-7----7\------| 
|-7s9-(9)--9------|-9----0-7s9-7-0--|-/7----7--7--|-7-7-7--7\------| 
|----------0--0---|----0------------|--7-------7--|-----7----------| 
|-----------------|-----------------|-------------|----------------| 
|-0--------0----0-|-----------------|-/7----7-----|-----7-------0--| 


|---------------|-----------------|-^0------/12--10----|------------------| 
|--------5----5-|-----5-----5-----|-^0----0---------12-|-12----12---------| 
|-3s5----5--5---|-5-----5-----5---|-^0-----------------|----12-12---------| 
|-3s5-------5---|---5-----5-----5-|-^0--0--------------|---------------0--| 
|---------------|-----------------|-^0-----------------|------------------| 
|--------5------|-----------------|-^0-----------------|-------------0----| 


|-----------------|-----------------|-------------|----------------| 
|-----------------|-----------------|-------7-----|-7-7----7\------| 
|-7s9-(9)--9------|-9----0-7s9-7-0--|-/7----7--7--|-7-7-7--7\------| 
|----------0--0---|----0------------|--7-------7--|-----7----------| 
|-----------------|-----------------|-------------|----------------| 
|-0--------0----0-|-----------------|-/7----7-----|-----7-------0--| 


|---------------|-----------------|----------------|---------------| 
|--------5----5-|-----5-----5-----|---------9------|-------7-------| 
|-3s5----5--5---|-5-----5-----5---|-5s9--9-----9---|-7--------7----| 
|-3s5-------5---|---5-----5-----5-|-5s9----------9S|=7--7-------7S=| 
|---------------|-----------------|----------------|---------------| 
|--------5------|-----------------|-5s9------------|-7-------------| 


|--------------|-----------------|----------------|-----------------| 
|-------5----5-|-----5-----5-----|---------9------|-------7-7-------| 
|-5--------5---|-5-----5-----5---|-5s9--9-----9---|-7---------7-----| 
|-5--5---------|---5-----5-----5-|-5s9----------9S|=7--7--------7S==| 
|--------------|-----------------|----------------|-----------------| 
|-5------------|-----------------|-5s9------------|-7---------------| 


|--------------|-----------------|----------------|---------------| 
|-------5----5-|-----5-----5-----|---------9------|-------7-------| 
|-5--------5---|-5-----5-----5---|-5s9--------9---|-7--------7----| 
|-5--5---------|---5-----5-----5-|-5s9--9-------9S|=7--7-------7--| 
|--------------|-----------------|----------------|---------------| 
|-5------------|-----------------|-5s9------------|-7-------------| 


|----------|----------|----------|------|| 
|----------|----------|----------|------|| 
|----------|----------|----------|------|| 
|----------|----------|----------|------|| 
|----------|----------|----------|------|| 
|-0--------|-0--------|-0--------|-0----|| 


 Bridge 
|-0--0-0-(0)-0-0-0-0-|-0--0-0-(0)-0-0-0-0-0-| 
|-0--0-0-(0)-0-0-0-0-|-0--0-0-(0)-0-0-0-0-0-| 
|-2--2-2-(2)-2-2-2-2-|-2--2-2-(2)-2-2-2-2-2-| 
|-2--2-2-(2)-2-2-2-2-|-2--2-2-(2)-2-2-2-2-2-| 
|-2--2-2-(2)-2-2-2-2-|-2--2-2-(2)-2-2-2-2-2-| 
|-2--2-2-(2)-2-2-2-2-|-2--2-2-(2)-2-2-2-2-2-| 


|---0--0-0-(0)-0-0-0-0-|-0--0-0-(0)-0-0-0-0-0----| 
|---0--0-0-(0)-0-0-0-0-|-0--0-0-(0)-0-0-0-0-0----| 
|-2s5--5-5-(5)-5-5-5-5-|-5--5-5-(5)-5-5-5-5-5S===| 
|-2s5--5-5-(5)-5-5-5-5-|-5--5-5-(5)-5-5-5-5-5S===| 
|-2s5--5-5-(5)-5-5-5-5-|-5--5-5-(5)-5-5-5-5-5S===| 
|-2s5--5-5-(5)-5-5-5-5-|-5--5-5-(5)-5-5-5-5-5S===| 


|-0--0-0-(0)-0-0-0-0-|-0--0-0-(0)-0-0-0-0-0-| 
|-0--0-0-(0)-0-0-0-0-|-0--0-0-(0)-0-0-0-0-0-| 
|-2--2-2-(2)-2-2-2-2-|-2--2-2-(2)-2-2-2-2-2-| 
|-2--2-2-(2)-2-2-2-2-|-2--2-2-(2)-2-2-2-2-2-| 
|-2--2-2-(2)-2-2-2-2-|-2--2-2-(2)-2-2-2-2-2-| 
|-2--2-2-(2)-2-2-2-2-|-2--2-2-(2)-2-2-2-2-2-| 


|---0--0-0-(0)-0-0-0-0-|-0--0-0-(0)-0-0-0-0-0----| 
|---0--0-0-(0)-0-0-0-0-|-0--0-0-(0)-0-0-0-0-0----| 
|-2s5--5-5-(5)-5-5-5-5-|-5--5-5-(5)-5-5-5-5-5S===| 
|-2s5--5-5-(5)-5-5-5-5-|-5--5-5-(5)-5-5-5-5-5S===| 
|-2s5--5-5-(5)-5-5-5-5-|-5--5-5-(5)-5-5-5-5-5S===| 
|-2s5--5-5-(5)-5-5-5-5-|-5--5-5-(5)-5-5-5-5-5S===| 


|-0--0-0-(0)-0-0-0-0-|-0--0-0-(0)-0-0-0-0-0-| 
|-0--0-0-(0)-0-0-0-0-|-0--0-0-(0)-0-0-0-0-0-| 
|-2--2-2-(2)-2-2-2-2-|-2--2-2-(2)-2-2-2-2-2-| 
|-2--2-2-(2)-2-2-2-2-|-2--2-2-(2)-2-2-2-2-2-| 
|-2--2-2-(2)-2-2-2-2-|-2--2-2-(2)-2-2-2-2-2-| 
|-2--2-2-(2)-2-2-2-2-|-2--2-2-(2)-2-2-2-2-2-| 


|---0--0-0-(0)-0-0-0-0-|-0--0-0-(0)-0-0-0-0-0----| 
|---0--0-0-(0)-0-0-0-0-|-0--0-0-(0)-0-0-0-0-0----| 
|-2s5--5-5-(5)-5-5-5-5-|-5--5-5-(5)-5-5-5-5-5S===| 
|-2s5--5-5-(5)-5-5-5-5-|-5--5-5-(5)-5-5-5-5-5S===| 
|-2s5--5-5-(5)-5-5-5-5-|-5--5-5-(5)-5-5-5-5-5S===| 
|-2s5--5-5-(5)-5-5-5-5-|-5--5-5-(5)-5-5-5-5-5S===| 


|-0--0-0-(0)-0-0-0-0-|-0--0-0-(0)-0-0-0-0-0-| 
|-0--0-0-(0)-0-0-0-0-|-0--0-0-(0)-0-0-0-0-0-| 
|-2--2-2-(2)-2-2-2-2-|-2--2-2-(2)-2-2-2-2-2-| 
|-2--2-2-(2)-2-2-2-2-|-2--2-2-(2)-2-2-2-2-2-| 
|-2--2-2-(2)-2-2-2-2-|-2--2-2-(2)-2-2-2-2-2-| 
|-2--2-2-(2)-2-2-2-2-|-2--2-2-(2)-2-2-2-2-2-| 


|---0--0-0-(0)-0-0-0-0-|-0--0-0-(0)-0-0-0-0-0----|| 
|---0--0-0-(0)-0-0-0-0-|-0--0-0-(0)-0-0-0-0-0----|| 
|-2s5--5-5-(5)-5-5-5-5-|-5--5-5-(5)-5-5-5-5-5S===|| 
|-2s5--5-5-(5)-5-5-5-5-|-5--5-5-(5)-5-5-5-5-5S===|| 
|-2s5--5-5-(5)-5-5-5-5-|-5--5-5-(5)-5-5-5-5-5S===|| 
|-2s5--5-5-(5)-5-5-5-5-|-5--5-5-(5)-5-5-5-5-5S===|| 


|-0--0-0-(0)-0-0-0-0-|-0--0-0-(0)-0-0-0-0-0-| 
|-0--0-0-(0)-0-0-0-0-|-0--0-0-(0)-0-0-0-0-0-| 
|-2--2-2-(2)-2-2-2-2-|-2--2-2-(2)-2-2-2-2-2-| 
|-2--2-2-(2)-2-2-2-2-|-2--2-2-(2)-2-2-2-2-2-| 
|-2--2-2-(2)-2-2-2-2-|-2--2-2-(2)-2-2-2-2-2-| 
|-2--2-2-(2)-2-2-2-2-|-2--2-2-(2)-2-2-2-2-2-| 


|---0--0-0-(0)-0-0-0-0-|-0--0-0-(0)-0-0-0-0-0----| 
|---0--0-0-(0)-0-0-0-0-|-0--0-0-(0)-0-0-0-0-0----| 
|-2s5--5-5-(5)-5-5-5-5-|-5--5-5-(5)-5-5-5-5-5S===| 
|-2s5--5-5-(5)-5-5-5-5-|-5--5-5-(5)-5-5-5-5-5S===| 
|-2s5--5-5-(5)-5-5-5-5-|-5--5-5-(5)-5-5-5-5-5S===| 
|-2s5--5-5-(5)-5-5-5-5-|-5--5-5-(5)-5-5-5-5-5S===| 


|-0--0-0-(0)-0-0-0-0-|-0--0-0-(0)-0-0-0-0-0-| 
|-0--0-0-(0)-0-0-0-0-|-0--0-0-(0)-0-0-0-0-0-| 
|-2--2-2-(2)-2-2-2-2-|-2--2-2-(2)-2-2-2-2-2-| 
|-2--2-2-(2)-2-2-2-2-|-2--2-2-(2)-2-2-2-2-2-| 
|-2--2-2-(2)-2-2-2-2-|-2--2-2-(2)-2-2-2-2-2-| 
|-2--2-2-(2)-2-2-2-2-|-2--2-2-(2)-2-2-2-2-2-| 


|---0----0-(0)-0---0-0-|------0-(0)-0---0-0-| 
|---0----0-(0)-0-0-0-0-|------0-(0)-0-0-0-0-| 
|-2s5----------5-5-5-5-|------------5-5-5-5-| 
|-2s5--5---------5-5---|----5---------5-5---| 
|-2s5------------5-----|--------------5-----| 
|-2s5------------------|-5------------------| 


|----------|----------|----------|------| 
|----------|----------|----------|------| 
|----------|----------|----------|------| 
|----------|----------|----------|------| 
|----------|----------|----------|------| 
|-0--------|-0--------|-7--------|-7----| 


|----------|----------|----------|-------------------| 
|----------|----------|----------|-7--7S8S9S10S11s12-| 
|----------|----------|----------|-7--7S8S9S10S11s12-| 
|----------|----------|----------|-7--7S8S9S10S11s12-| 
|----------|----------|----------|-------------------| 
|-0--------|-0--------|-7--------|-7--7S8S9S10S11s12-| 


|----------|----------|----------|------| 
|-0--------|----------|----------|------| 
|-0--------|----------|----------|------| 
|-0--------|----------|----------|------| 
|----------|----------|----------|------| 
|-0--------|-0--------|-0--------|-0----| 


|----------|----------|----------|------|| 
|----------|----------|----------|------|| 
|----------|----------|----------|------|| 
|----------|----------|----------|------|| 
|----------|----------|----------|------|| 
|-0--------|-0--------|-0--------|-0----|| 


 Guitar Solo 
|-|| 
|-|| 
|-|| 
|-|| 
|-|| 
|-|| 


 Verse 3 
|-----------------|-----------------|-------------|----------------| 
|-----------------|-----------------|-------7-----|-7-7----7\------| 
|-7s9-(9)--9------|-9----0-7s9-7-0--|-/7----7--7--|-7-7-7--7\------| 
|----------0--0---|----0------------|--7-------7--|-----7----------| 
|-----------------|-----------------|-------------|----------------| 
|-0--------0----0-|-----------------|-/7----7-----|-----7-------0--| 


|---------------|-----------------|-^0------/12--10----|------------------| 
|--------5----5-|-----5-----5-----|-^0----0---------12-|-12----12---------| 
|-3s5----5--5---|-5-----5-----5---|-^0-----------------|----12-12---------| 
|-3s5-------5---|---5-----5-----5-|-^0--0--------------|---------------0--| 
|---------------|-----------------|-^0-----------------|------------------| 
|--------5------|-----------------|-^0-----------------|-------------0----| 


|-----------------|-----------------|-------------|----------------| 
|-----------------|-----------------|-------7-----|-7-7----7\------| 
|-7s9-(9)--9------|-9----0-7s9-7-0--|-/7----7--7--|-7-7-7--7\------| 
|----------0--0---|----0------------|--7-------7--|-----7----------| 
|-----------------|-----------------|-------------|----------------| 
|-0--------0----0-|-----------------|-/7----7-----|-----7-------0--| 


|---------------|-----------------|----------------|---------------| 
|--------5----5-|-----5-----5-----|---------9------|-------7-------| 
|-3s5----5--5---|-5-----5-----5---|-5s9--9-----9---|-7--------7----| 
|-3s5-------5---|---5-----5-----5-|-5s9----------9S|=7--7-------7S=| 
|---------------|-----------------|----------------|---------------| 
|--------5------|-----------------|-5s9------------|-7-------------| 


|--------------|-----------------|----------------|-----------------| 
|-------5----5-|-----5-----5-----|---------9------|-------7-7-------| 
|-5--------5---|-5-----5-----5---|-5s9--9-----9---|-7---------7-----| 
|-5--5---------|---5-----5-----5-|-5s9----------9S|=7--7--------7S==| 
|--------------|-----------------|----------------|-----------------| 
|-5------------|-----------------|-5s9------------|-7---------------| 


|--------------|-----------------|----------------|---------------|| 
|-------5----5-|-----5-----5-----|---------9------|-------7-------|| 
|-5--------5---|-5-----5-----5---|-5s9--------9---|-7--------7----|| 
|-5--5---------|---5-----5-----5-|-5s9--9-------9S|=7--7-------7--|| 
|--------------|-----------------|----------------|---------------|| 
|-5------------|-----------------|-5s9------------|-7-------------|| 


 Outro 
|----------|----------|----------|------| 
|----------|----------|----------|------| 
|----------|----------|----------|------| 
|----------|----------|----------|------| 
|----------|----------|----------|------| 
|-0--------|-0--------|-0--------|-0----| 


|----------|----------|----------|------*| 
|----------|----------|----------|------*| 
|----------|----------|----------|------*| 
|----------|----------|----------|------*| 
|----------|----------|----------|------*| 
|-0--------|-0--------|-0--------|-0----*|
Добавлено: 08.07.2012
Другие материалы по этой песне:
  • Аккорды и текст

Страница создана 08.07.2012
http://primanota.ru/john-butler-trio/busted-chords.htm
Привет, Гость.
Предлагаем пройти революционный курс по гитаре.
Подарок от PrimaNota.Ru, забирай!