PrimaNota.ru - самый крупный в мире бесплатный архив песенных текстов, аккордов, табулатур и нот


John Butler Trio - Funky Tonight Live - таба, бас-таба, видео

Регистрация Запомнить меня
Войти через:  Facebook Google Twitter Vk Yandex Mail.ru

John Butler Trio - Funky Tonight Live - таба, бас-таба, видео

Печатать
Просмотров: 140
main
-------------------------------------------------------------------|
-----0---------0------0------0---------0---0---0---0---0-----------|
-----0---------0------0------0---------0---0---0---0---0-----------|
-------------------3--0--------------------------------------------|
--------3-4-5-----------3-5--------------3---3---------------------|
--0-----run ---------------------------------------5---3-----------|

the 12 string missing a G makes me think that the chords bit ( back in 1999 bit) is a 
more like this

chorus
-------x------------------------------------|
---0----0-0---0---0-0-----------------------|
---3----5-5---2---3-3----0--0----0--0-------|
---0----0-0---0---0-0----3--5----3--0-------|
---3----5-5---2---3-3----x--x----0--0-------|
---0----0-0---0---0-0----3--5----3--0-------|
     slide      slide       slide        P/Off
you know the rhythm thats just the chords for the first 1999 bit

the 2nd bit is a different but pretty much the same

2nd chorus
----------------------------------|
-0---------x-------x--------------|
-5---------3-------0-------0------|
-0---------3-------5-------0------|
-5---------0-------x-------0------|
-0---------0-------5-------0------|


Jason Rhodes
AKA Hollywood
Добавлено: 22.06.2012
Другие материалы по этой песне:
  • Аккорды и текст

Страница создана 22.06.2012
http://primanota.ru/john-butler-trio/funky-tonight-live-chords.htm
Привет, Гость.
Предлагаем пройти революционный курс по гитаре.
Подарок от PrimaNota.Ru, забирай!