PrimaNota.ru - самый крупный в мире бесплатный архив песенных текстов, аккордов, табулатур и нот


John Butler Trio - Damned To Hell - таба, видео

Регистрация Запомнить меня
Войти через:  Facebook Google Twitter Vk Yandex Mail.ru

John Butler Trio - Damned To Hell - таба, видео

Печатать
Просмотров: 99
Авторы музыки: John Butler
Авторы текста: John Butler
John Butler Trio- Damned To Hell (Sunrise Over Sea [2004])
Tuning- Dm (D a D F A D) 


Intro 
  
|-0---2-3---2-0---0-------|-0---2-3---2-0---0-0---0-| 
|-------------------3---3-|-------------------------| 
|-------------------------|-------------------------| 
|-0-----0-----0-----0-----|-0-----0-----0-----0-----| 
|---0-----0-----0-----0---|---0-----0-----0-----0---| 
|-------------------------|-------------------------| 

|-0---2-3---2-0---0-------|-----------------------| 
|-------------------3---3-|-0---0-3---3-5---5-5---| 
|-------------------------|-----------------------| 
|-0-----0-----0-----0-----|-0-----0-----0-----0---| 
|---0-----0-----0-----0---|---0-----0-----0-----0-| 
|-------------------------|-----------------------| 

|-----------------------------|-----------------------------| 
|-3h5---5-----0-3h5---5-----0-|-3h5---5-----0-3h5---5-----0-| 
|-----------------------------|-----------------------------| 
|-0-------0-----0-------0-----|-0-------0-----0-------0-----| 
|-----0-----0-------0-----0---|-----0-----0-------0-----0---| 
|-----------------------------|-----------------------------| 

|-----------------------------|--------------------------------|| 
|-3h5---5-----0-3h5---5-----0-|-3h5---5-----0-3h5---5-----0----|| 
|-----------------------------|--------------------------------|| 
|-0-------0-----0-------0-----|-0-------0-----0-------0--------|| 
|-----0-----0-------0-----0---|-----0-----0-------0-----0------|| 
|---------------------------0-|--------------------------------|| 

Verse 1 
|-0---2-3---2-0---0-------|-0---2-3---2-0---0-0---0-| 
|-------------------3---3-|-------------------------| 
|-------------------------|-------------------------| 
|-0-----0-----0-----0-----|-0-----0-----0-----0-----| 
|---0-----0-----0-----0---|---0-----0-----0-----0---| 
|-------------------------|-------------------------| 

|-0---2-3---2-0---0-------|-0---2-3---2-0---0-0---0---| 
|-------------------3---3-|---------------------------| 
|-------------------------|---------------------------| 
|-0-----0-----0-----0-----|-0-----0-----0-----0-------| 
|---0-----0-----0-----0---|---0-----0-----0-----0-----| 
|-------------------------|---------------------------| 

Chorus 
|-7---0-5---0-3-----0---0-|-7---0-3-----2---2-2---2-| 
|-----------------5-------|-----------5-------------| 
|-------------------------|-------------------------| 
|-0-----0-----0-----0-----|-0-----0-----0-----0-----| 
|---0-----0-----0-----0---|---0-----0-----0-----0---| 
|-------------------------|-------------------------| 

|-0---2-3---2-0---0-------|-0---2-3---2-0---0-0---0----|| 
|-------------------3---3-|----------------------------|| 
|-------------------------|----------------------------|| 
|-0-----0-----0-----0-----|-0-----0-----0-----0--------|| 
|---0-----0-----0-----0---|---0-----0-----0-----0------|| 
|-------------------------|----------------------------|| 

|-----------------------------|-----------------------------| 
|-3h5---5-----0-3h5---5-----0-|-3h5---5-----0-3h5---5-----0-| 
|-----------------------------|-----------------------------| 
|-0-------0-----0-------0-----|-0-------0-----0-------0-----| 
|-----0-----0-------0-----0---|-----0-----0-------0-----0---| 
|-----------------------------|-----------------------------| 

|-----------------------------|-----------------------------|| 
|-3h5---5-----0-3h5---5-----0-|-3h5---0-----5-3h5---5-----0-|| 
|-----------------------------|-----------------------------|| 
|-0-------0-----0-------0-----|-0-------0-----0-------0-----|| 
|-----0-----0-------0-----0---|-----0-----0-------0-----0---|| 
|-----------------------------|-----------------------------|| 

Verse 2 
|-0---2-3---2-0---0-------|-0---2-3---2-0---0-0---0-| 
|-------------------3---3-|-------------------------| 
|-------------------------|-------------------------| 
|-0-----0-----0-----0-----|-0-----0-----0-----0-----| 
|---0-----0-----0-----0---|---0-----0-----0-----0---| 
|-------------------------|-------------------------| 

|-0---2-3---2-0---0-------|-0---2-3---2-0---0-0---0----| 
|-------------------3---3-|----------------------------| 
|-------------------------|----------------------------| 
|-0-----0-----0-----0-----|-0-----0-----0-----0--------| 
|---0-----0-----0-----0---|---0-----0-----0-----0------| 
|-------------------------|----------------------------| 

Chorus 
|-7---0-5---0-3-----0---0-|-7---0-3-----2---2-2---2-| 
|-----------------5-------|-----------5-------------| 
|-------------------------|-------------------------| 
|-0-----0-----0-----0-----|-0-----0-----0-----0-----| 
|---0-----0-----0-----0---|---0-----0-----0-----0---| 
|-------------------------|-------------------------| 

|-0---2-3---2-0---0-------|-0---2-3---2-0---0-0---0----|| 
|-------------------3---3-|----------------------------|| 
|-------------------------|----------------------------|| 
|-0-----0-----0-----0-----|-0-----0-----0-----0--------|| 
|---0-----0-----0-----0---|---0-----0-----0-----0------|| 
|-------------------------|----------------------------|| 

|-----------------------------|-----------------------------| 
|-3h5---5-----0-3h5---5-----0-|-3h5---5-----0-3h5---5-----0-| 
|-----------------------------|-----------------------------| 
|-0-------0-----0-------0-----|-0-------0-----0-------0-----| 
|-----0-----0-------0-----0---|-----0-----0-------0-----0---| 
|-----------------------------|-----------------------------| 

|-----------------------------|-----------------------------|| 
|-3h5---5-----0-3h5---5-----0-|-3h5---5-----0-3h5---5-----0-|| 
|-----------------------------|-----------------------------|| 
|-0-------0-----0-------0-----|-0-------0-----0-------0-----|| 
|-----0-----0-------0-----0---|-----0-----0-------0-----0---|| 
|-----------------------------|-----------------------------|| 

Banjo Solo 
|-----------------------------|-----------------------------| 
|-0h3---5-----0-5p3---0-----0-|-0h3---5-----0-5p3---0-----0-| 
|-----------------------------|-----------------------------| 
|-0-------0-----0-------0-----|-0-------0-----0-------0-----| 
|-----0-----0-------0-----0---|-----0-----0-------0-----0---| 
|-----------------------------|-----------------------------| 

|-----------------------------|-----------------------------| 
|-0h3---5-----0-5p3---0-----0-|-0h3---5-----0-5p3---0-----0-| 
|-----------------------------|-----------------------------| 
|-0-------0-----0-------0-----|-0-------0-----0-------0-----| 
|-----0-----0-------0-----0---|-----0-----0-------0-----0---| 
|-----------------------------|-----------------------------| 

|-----------------------------|-----------------------------| 
|-0h3---5-----0-5p3---0-----0-|-0h3---5-----0-5p3---0-----0-| 
|-----------------------------|-----------------------------| 
|-0-------0-----0-------0-----|-0-------0-----0-------0-----| 
|-----0-----0-------0-----0---|-----0-----0-------0-----0---| 
|-----------------------------|-----------------------------| 

|-----------------------------|-----------------------------|| 
|-0h3---5-----0-5p3---0-----0-|-0h3---5-----0-5p3---0-----0-|| 
|-----------------------------|-----------------------------|| 
|-0-------0-----0-------0-----|-0-------0-----0-------0-----|| 
|-----0-----0-------0-----0---|-----0-----0-------0-----0---|| 
|-----------------------------|-----------------------------|| 

|-----------------------------|-----------------------------| 
|-5s7---7-----0-7s5---5-----0-|-5s7---7-----0-7s5---5-----0-| 
|-----------------------------|-----------------------------| 
|-0-------0-----0-------0-----|-0-------0-----0-------0-----| 
|-----0-----0-------0-----0---|-----0-----0-------0-----0---| 
|-----------------------------|-----------------------------| 

|-----------------------------|-----------------------------| 
|-5s7---7-----0-7s5---5-----0-|-5s3---3-----0-3s5---5-----0-| 
|-----------------------------|-----------------------------| 
|-0-------0-----0-------0-----|-0-------0-----0-------0-----| 
|-----0-----0-------0-----0---|-----0-----0-------0-----0---| 
|-----------------------------|-----------------------------| 

|-----------------------------|-----------------------------| 
|-5s7---7-----0-7s5---5-----0-|-5s7---7-----0-7s5---5-----0-| 
|-----------------------------|-----------------------------| 
|-0-------0-----0-------0-----|-0-------0-----0-------0-----| 
|-----0-----0-------0-----0---|-----0-----0-------0-----0---| 
|-----------------------------|-----------------------------| 

|-----------------------------|-----------------------------|| 
|-5s7---7-----0-7s5---5-----0-|-5s3---3-----0-3s5---5-----0-|| 
|-----------------------------|-----------------------------|| 
|-0-------0-----0-------0-----|-0-------0-----0-------0-----|| 
|-----0-----0-------0-----0---|-----0-----0-------0-----0---|| 
|-----------------------------|-----------------------------|| 

|-----------------------------|-----------------------------| 
|-3h5---5-----0-3h5---5-----0-|-3h5---5-----0-3h5---5-----0-| 
|-----------------------------|-----------------------------| 
|-0-------0-----0-------0-----|-0-------0-----0-------0-----| 
|-----0-----0-------0-----0---|-----0-----0-------0-----0---| 
|-----------------------------|-----------------------------| 

|-----------------------------|-----------------------------|| 
|-3h5---5-----0-3h5---5-----0-|-3h5---5-----0-3h5---5-----0-|| 
|-----------------------------|-----------------------------|| 
|-0-------0-----0-------0-----|-0-------0-----0-------0-----|| 
|-----0-----0-------0-----0---|-----0-----0-------0-----0---|| 
|-----------------------------|-----------------------------||

Verse 3 
|-0---2-3---2-0---0-------|-0---2-3---2-0---0-0---0-| 
|-------------------3---3-|-------------------------| 
|-------------------------|-------------------------| 
|-0-----0-----0-----0-----|-0-----0-----0-----0-----| 
|---0-----0-----0-----0---|---0-----0-----0-----0---| 
|-------------------------|-------------------------| 


|-0---2-3---2-0---0-------|-0---2-3---2-0---0-0---0----| 
|-------------------3---3-|----------------------------| 
|-------------------------|----------------------------| 
|-0-----0-----0-----0-----|-0-----0-----0-----0--------| 
|---0-----0-----0-----0---|---0-----0-----0-----0------| 
|-------------------------|----------------------------| 


Chorus 
|-7---0-5---0-3-----0---0-|-7---0-3-----2---2-2---2-| 
|-----------------5-------|-----------5-------------| 
|-------------------------|-------------------------| 
|-0-----0-----0-----0-----|-0-----0-----0-----0-----| 
|---0-----0-----0-----0---|---0-----0-----0-----0---| 
|-------------------------|-------------------------| 


|-0---2-3---2-0---0-------|-0---2-3---2-0---0-0---0----| 
|-------------------3---3-|----------------------------| 
|-------------------------|----------------------------| 
|-0-----0-----0-----0-----|-0-----0-----0-----0--------| 
|---0-----0-----0-----0---|---0-----0-----0-----0------| 
|-------------------------|----------------------------| 


Out-Chorus 
|-7---0-5---0-3-----0---0-|-7---0-3-----2---2-2---2-| 
|-----------------5-------|-----------5-------------| 
|-------------------------|-------------------------| 
|-0-----0-----0-----0-----|-0-----0-----0-----0-----| 
|---0-----0-----0-----0---|---0-----0-----0-----0---| 
|-------------------------|-------------------------| 


|-0---2-3---2-0---0-------|-0---2-3---2-0----*| 
|-------------------3---3-|------------------*| 
|-------------------------|------------------*| 
|-0-----0-----0-----0-----|-0-----0-----0----*| 
|---0-----0-----0-----0---|---0-----0--------*| 
|-------------------------|------------------*| 

Добавлено: 14.04.2012
Другие материалы по этой песне:
  • Аккорды и текст

Страница создана 14.04.2012
http://primanota.ru/john-butler-trio/damned-to-hell-chords.htm
Привет, Гость.
Предлагаем пройти революционный курс по гитаре.
Подарок от PrimaNota.Ru, забирай!