PrimaNota.ru - самый крупный в мире бесплатный архив песенных текстов, аккордов, табулатур и нот


John 5 - Black Widow Of La Porte - таба, бас-таба, видео

Регистрация Запомнить меня
Войти через:  Facebook Google Twitter Vk Yandex Mail.ru

John 5 - Black Widow Of La Porte - таба, бас-таба, видео

Печатать
Просмотров: 324
-------------------------------------------------------------------------------
                           "Black Widow of La Porte" --- John 5
-------------------------------------------------------------------------------

Tabbed by: [travis]


**I'm only going to tab out the solos and licks for this song. 
I can barely tell what the rhythm is on some parts, so I won't bother
with that. Plus, it's a hell of a long song to tab out. 
Make sure to check out my other John 5 tabs. **



Tuning: Standard (E A D G B E)


Key: G Major (G A B C D E F# G)


Legend:
... = palm mute
h = hammer on
p = pull off
T = tap
I = pick with tapping finger
b = bend
pb = pre bend
__ = hold bend
() = bring bent note back to normal
~ = vibrato
/ = slide up
\ = slide down
* = pinch harmonic
h/ = one pick
h/p\ = one pick
x = muffled string


Guitar 1:
e|---------------------------------------------------------|
B|-------------------------------------------------------0-|
G|--------0---------------0---------------------0--------3-|
D|-2p0h2-----2-----2p0h2-----2--------0--2p0h2-----2-------|
A|---------------------------------2------------------2----|
E|-0------------0---------------0--------0-----------------|

====================
Guitar 1:
e|------------------------------------------------------|
B|----------------------------------------------------0-|
G|--------0--------------0---------------------0------3-|
D|-2p0h2----2-----2p0h2-----2--------0--2p0h2-----------|
A|--------------------------------2----------------2----|
E|-0-----------0---------------0--------0---------------|

The sound effect that you hear is John's guitar unplugged when
you let the chord touch something else, which gives you that buzz sound.

========================
Guitar 2:
e|---------------------------------------------------------------------------|
B|---------------------------------------------------------------------------|
G|---------------------------------------------------------------------------|
D|---------------------------12h/14--14\--------------------------12h/14--12-|
A|-2-5-5-6-6-6-7-7-7-8-8-0---12h/14--14\-2-5-5-6-6-6-7-7-7-8-8-0--12h/14--12-|
E|-0-3-3-4-4-4-5-5-5-6-6-0---10h/12--12\-0-3-3-4-4-4-5-5-5-6-6-0--10h/12--10-|
     .....................               .......................

========================
Guitar 1: You can rock your wah pedal back and forth fast for the sound here.
e|------------------------------------------------------|
B|------------------------------------------------------|
G|-9/12--12/13--13-13/14--14--14/15--15--x--19h/21--21--|
D|-x--x---x------x--x--x---x---x--x---x--x---x---x---x--|
A|-7/10--10/11--11-11/12--12--12/13--13--x--17h/19--19--|
E|------------------------------------------------------|

=========================
Guitar 1:
e|-------------------------------------------------------------------|
B|-------------------------------------------------------------------|
G|-------------------------------------------------------------------|
D|-----3-------3-------3-------5-----3-------3-------3-------------3-|
A|-2-2-3-2-2-2-3-2-2-2-3-2-2-2-5-2-2-3-2-2-2-3-2-2-2-3-2-5-4-3-2-2-3-|
E|-0-0-1-0-0-0-1-0-0-0-1-0-0-0-3-0-0-1-0-0-0-1-0-0-0-1-0-3-2-1-0-0-1-|
   ...   .....   .....   .....   ...   .....   .....   ...........     


Guitar 1: continued.
e|-----------------------------------|
B|-----------------------------------|
G|-----------------------------------|
D|-------3-------3-------5-------3-2-|
A|-2-2-2-3-2-2-2-3-2-2-2-5-2-2-2-3-2-|
E|-0-0-0-1-0-0-0-1-0-0-0-3-0-0-0-1-0-|
   .....   .....   .....   .....

=========================
Guitar 1: I divided each section up so you can read it easier. 
You can add some hammer ons if you want to make it easier to play.
e|---------------|------------|--------------|--------------|--------------|
B|-5-7-8-7-5-7-8-|8-10-11-10-8|-5-7-8-7-5-7-8|-8-10-11-10-8-|10-12-13-12-10|
G|---------------|------------|--------------|--------------|--------------|
D|---------------|------------|--------------|--------------|--------------|
A|---------------|------------|--------------|--------------|--------------|
E|---------------|------------|--------------|--------------|--------------|

Guitar 1:
e|--------------|--------------|----------------|------------------|-------------|
B|-8-10-11-10-8-|10-12-13-12-10|8-10-11-10-8-10-|11-11-13-14-13-11-|8-10-11-10-8-|
G|--------------|--------------|----------------|------------------|-------------|
D|--------------|--------------|----------------|------------------|-------------|
A|--------------|--------------|----------------|------------------|-------------|
E|--------------|--------------|----------------|------------------|-------------|

Guitar 1:
                                          1_____    1___
e|----------------|-------------------------------------------|
B|-11-13-14-13-11-|13-15-16-15-13-15-16-18b-----(18)b---(18)--|
G|----------------|-------------------------------------------|
D|----------------|-------------------------------------------|
A|----------------|-------------------------------------------|
E|----------------|-------------------------------------------|

==========================
Guitar 1:
                                                                             1_______
e|-5h7h8-7-9-10p9p7-5h7h8p7p5-5------------------------------------------------------|
B|------------------------------8-8p7p5-7h910p9p7-5h7h8p7p5-5-5----------------------|
G|--------------------------------------------------------------8-7-5-5-7-5-7b~~~~~~~|
D|-----------------------------------------------------------------------------------|
A|-----------------------------------------------------------------------------------|
E|-----------------------------------------------------------------------------------|

===========================
Guitar 1:
                1____   1___   1___   1_____
e|----------------------------------------------|
B|----------------------------------------------|
G|~~~~~~~(7)--7*b----(7)b---(7)b---(7)b-----(7)-|
D|----------------------------------------------|
A|----------------------------------------------|
E|----------------------------------------------|

============================
Guitar 1:
e|---------------|-------------------|---------------|--------------|
B|-5-7-8-7-5-7-8-|8-10-11-10-8-10-11-|10-12-13-12-10-|5-7-8-7-5-7-8-|
G|---------------|-------------------|---------------|--------------|
D|---------------|-------------------|---------------|--------------|
A|---------------|-------------------|---------------|--------------|
E|---------------|-------------------|---------------|--------------|

Guitar 1:
e|--------------------|---------------|-------------------|---------------------|
B|-8-10-11-10-8-10-11-|10-12-13-12-10-|8-10-11-10-8-10-11-|11-13-14-13-11-13-14-|
G|--------------------|---------------|-------------------|---------------------|
D|--------------------|---------------|-------------------|---------------------|
A|--------------------|---------------|-------------------|---------------------|
E|--------------------|---------------|-------------------|---------------------|

Guitar 1:
e|----------------|-------------------|--------------------|----------------|
B|-13-15-16-15-13-|8-10-11-10-8-10-11-|11-13-14-13-11-13-14|-13-15-16-15-13-|
G|----------------|-------------------|--------------------|----------------|
D|----------------|-------------------|--------------------|----------------|
A|----------------|-------------------|--------------------|----------------|
E|----------------|-------------------|--------------------|----------------|

==============================
Guitar 1:
e|---------------------------------------------------------------------------------|
B|---------------------------------12h16p12----12h16p12----12h16p12----12h16p12----|
G|---------------------12-14-12-14----------14----------14----------14----------14-|
D|--------10-10-12h/14-------------------------------------------------------------|
A|-10h/12--------------------------------------------------------------------------|
E|---------------------------------------------------------------------------------|

Guitar 1:
               1     1      1   1   1   1______
e|--------------------------------------------------|
B|-12h16p12--15b---15b----15b-15b-15b-15b~~~~~~(15)-|
G|--------------------------------------------------|
D|--------------------------------------------------|
A|--------------------------------------------------|
E|--------------------------------------------------|

===============================
Guitar 2:
                                                                             1__
e|------------------------------------------------------------------------------|
B|------------------------------------------------------------------------------|
G|-7h/9-7-9-12-12-12--9-7-9-12-12--4-4-7-7-7-9-7-9-12-12-12--9-7-9-12-12-9-15b--|
D|------------------------------------------------------------------------------|
A|------------------------------------------------------------------------------|
E|------------------------------------------------------------------------------|

Guitar 2:
e|------------------------------------------------------------------------|
B|------------------------------12h14h15p14p12----------------------------|
G|-9-7-9-12-12-12-9-7-9h/12-12\----------------14p12p11--9-7-9-12-12-12-9-|
D|------------------------------------------------------------------------|
A|------------------------------------------------------------------------|
E|------------------------------------------------------------------------|

Guitar 2:
e|------------------------------------------|
B|-/17p14-------------17p14-------------17\-|
G|--------15-15-15-15-------15-15-15-15-----|
D|------------------------------------------|
A|------------------------------------------|
E|------------------------------------------|
          ...........       ...........

=================================
Guitar 1:
e|-------------------------------------------------------------------|
B|-------------------------------------------------------------------|
G|-------------------------------------------------------------------|
D|-----3-------3-------3-------5-----3-------3-------3-------------3-|
A|-2-2-3-2-2-2-3-2-2-2-3-2-2-2-5-2-2-3-2-2-2-3-2-2-2-3-2-5-4-3-2-2-3-|
E|-0-0-1-0-0-0-1-0-0-0-1-0-0-0-3-0-0-1-0-0-0-1-0-0-0-1-0-3-2-1-0-0-1-|
   ...   .....   .....   .....   ...   .....   .....   ...........     


Guitar 1: continued.
e|-----------------------------------|
B|-----------------------------------|
G|-----------------------------------|
D|-------3-------3-------5-------3-2-|
A|-2-2-2-3-2-2-2-3-2-2-2-5-2-2-2-3-2-|
E|-0-0-0-1-0-0-0-1-0-0-0-3-0-0-0-1-0-|
   .....   .....   .....   .....

====================================
Guitar 2:
e|-10p7---7-10--15-12------12-15--17--20b----(20)--12~~~~~~~~~|
B|-----7-8-----------12--12-----------------------------------|
G|------9--------------12-------------------------------------|
D|------------------------------------------------------------|
A|------------------------------------------------------------|
E|------------------------------------------------------------|

Guitar 2:
                                                                      1__
e|-13p10------10-13--18p15------15-18------------------------------------------|
B|------10--11------------15--15------15h17h18p17p15---------------------------|
G|--------12----------------15-----------------------17p16p14------------------|
D|------------------------------------------------------------17p15-17b--(17)--|
A|-----------------------------------------------------------------------------|
E|-----------------------------------------------------------------------------|

Guitar 2:
                                                       1__
e|----5-8----5-8----5-8----5-8--5h7h8p7p5------------------------|
B|---5------5------5------5---------------8p7p5------------------|
G|--5------5------5------5----------------------8p7p5-7b--(7)--5-|
D|-7------7------7------7----------------------------------------|
A|---------------------------------------------------------------|
E|---------------------------------------------------------------|
   ....   ....   ....   ....

========================================
Guitars 1 and 2:
    1______       1___   1__   1___   1____
e|---------------------------------------------|
B|---------------------------------------------|
G|-7b------(7)--7*b---(7)b--(7)b---(7)b----(7)-|
D|---------------------------------------------|
A|---------------------------------------------|
E|---------------------------------------------|

=========================================
Guitars 1 and 2:
e|------------------------------------------------------------------------------------|
B|------------------------------------------------------------------------------------|
G|-----10---7h9h10p9p7p\5--------10----------7h9h10p9p7-------13----10h12h13p12p10p\8-|
D|---9----9--------------------9----9-7h9h10---------------12----12-------------------|
A|-7----------------------5h/7--------------------------10----------------------------|
E|------------------------------------------------------------------------------------|
   ...    .                    .    .                   .....    ..

=========================================
Guitars 1 and 2:
e|-------------------------|
B|-------------------------|
G|----------13----13----13-|
D|-------12----12----12----|
A|-8h/10-------------------|
E|-------------------------|
         ..    ..    ..

=========================================
Guitars 1 and 2:
                     T                                     1___      1__   1__   1__   1_
e|---------------5h7-10p8p\5-5h7h8p7p5-/3p2p0--------------------------------------------|
B|-------------5------------------------------1-----------8b---(8)--8b--(8)b--(8)b--(8)b-|
G|-----------5---------------------------------/5h7h8p7p5--------------------------------|
D|-------5h7-----------------------------------------------------------------------------|
A|-----7---------------------------------------------------------------------------------|
E|-5h8-----------------------------------------------------------------------------------|

=========================================
Guitar 1:
                                                                             1___
e|-------------------------------------------------------------------------------|
B|-------------------------------------------------------------------------------|
G|-9-7-9-12-12-12-9-7-9-12-12--4-4-4-7-7-7-7-9-7-9-12-12-12-9-7--9-12-12-9-15b---|
D|-------------------------------------------------------------------------------|
A|-------------------------------------------------------------------------------|
E|-------------------------------------------------------------------------------|

Guitar 1:
e|-------------------------------------------------------------------------------|
B|-------------------------------------------------------------------------------|
G|-9-7-9-12-12-12-9-7--9-12-12-9-------------------------9-7-9-12-12-12----------|
D|-------------------------------------------------12-12----------------14-12-12-|
A|-------------------------------------------14-14-------------------------------|
E|-------------------------------12-12-15-15-------------------------------------|
                                 .......................

===========================================
Guitar 1:
e|-----------------------------------------|
B|-------------------------12-14-15-15-17\-|
G|----10-10-10-12-15-15-15-----------------|
D|-12--------------------------------------|
A|-----------------------------------------|
E|-----------------------------------------|

===========================================
Guitar 1:
             T                             T                   1_____
e|-----------------------------------12h15-17p15p14p13p12-14/20b----(20)---------------|
B|---------------------------------12------------------------------------18~~~~~17~~~~~|
G|-----12h15-17p15p14p13p12------12----------------------------------------------------|
D|---14---------------------15-15------------------------------------------------------|
A|-14----------------------------------------------------------------------------------|
E|-------------------------------------------------------------------------------------|

Guitar 1:
e|-----------------------------------12h15-17p15p14p13p12-14/20b----(20)---------------|
B|---------------------------------12------------------------------------18~~~~~17~~~~~|
G|-----12h15-17p15p14p13p12------12----------------------------------------------------|
D|---14---------------------15-15------------------------------------------------------|
A|-14----------------------------------------------------------------------------------|
E|-------------------------------------------------------------------------------------|

============================================
Here's where you here a guy talking in the backround.

=============================================
Guitar 2: use a wah pedal.
   1.5_________
e|---------------------------------------------------------------------|
B|-13b---------(13)----------------------------------------------------|
G|------------------16~~~~~~14h/16p\14h/19p\16~~~~~~-14h16h17-16-14-13-|
D|---------------------------------------------------------------------|
A|---------------------------------------------------------------------|
E|---------------------------------------------------------------------|

Guitar 2:
e|-13h16-12h13-10h12---------------------------------------------------------|
B|-------------------13h15-12~~~~~~~~----------------------------------------|
G|---------------------------------------------------------------------------|
D|---------------------------------------------------------------------------|
A|---------------------------------------------10h12-14-12-10-------14h15h17-|
E|-----------------------------------19\-10-10----------------13h17----------|

Guitar 2:
e|-----------------------------------------------------------------------------|
B|-----------------------------------------------------------------------------|
G|----------------------------/16-14-------------16-17-19-17-16----------------|
D|-14-------------14h15h17-14--------17p15p14h15----------------19-17-15p14-14-|
A|----17-14h15h17--------------------------------------------------------------|
E|-----------------------------------------------------------------------------|

Guitar 2:
e|------------------------------------------------------------------|
B|------------------------------------------------------------12h15-|
G|-14h15p14h15p14---------------------------------------------------|
D|----------------17p15p14h15p14h15-----------------------/14-------|
A|----------------------------------17p15p14h15p14-12---------------|
E|----------------------------------------------------12------------|

Guitar 2:
   T          T          T          T          T          T
e|-17p15p13p12-----------19p15p13p12-----------17p15p13p12------------|
B|------------17p15p13p12-----------19p15p13p12-----------17p15p13p12-|
G|--------------------------------------------------------------------|
D|--------------------------------------------------------------------|
A|--------------------------------------------------------------------|
E|--------------------------------------------------------------------|

Guitar 2:
   T          T          T       T          
e|-19p15p13p12-----------17p14p12-----------12h15-|
B|------------19p15p13p12--------17p14p12---------|
G|---------------------------------------h14------|
D|------------------------------------------------|
A|------------------------------------------------|
E|------------------------------------------------|

=============================================
Guitar 2:
   T          T          T          T          T          T          T          T
e|-17p15p13p12-----------19p15p13p12-----------20p15p13p12-----------19p15p13p12------------|
B|------------17p15p13p12-----------19p15p13p12-----------20p15p13p12-----------19p15p13p12-|
G|------------------------------------------------------------------------------------------|
D|------------------------------------------------------------------------------------------|
A|------------------------------------------------------------------------------------------|
E|------------------------------------------------------------------------------------------|

Guitar 3:
   T          T          T          T          T          T          T          T
e|------------------------------------------------------------------------------------------|
B|-17p15p13p12-----------18p15p13p12-----------20p15p13p12-----------19p15p13p12------------|
G|------------16p14p12p11-----------17p14p12p11-----------19p14p12p11-----------18p14p12p11-|
D|------------------------------------------------------------------------------------------|
A|------------------------------------------------------------------------------------------|
E|------------------------------------------------------------------------------------------|

=============================================
Guitar 2:
   T       T           
e|-17p14p12-----------12h15-|
B|---------17p14p12---------|
G|-----------------h14------|
D|--------------------------|
A|--------------------------|
E|--------------------------|

Guitar 3:
   T       T         
e|-------------------------|
B|-17p14p12----------12h15-|
G|---------16p13p11--------|
D|-----------------h9------|
A|-------------------------|
E|-------------------------|

============================================
Guitar 2:
   T          T          T          T          T          T          T          T
e|-17p15p13p12-----------19p15p13p12-----------17p15p13p12-----------19p15p13p12------------|
B|------------17p15p13p12-----------19p15p13p12-----------17p15p13p12-----------19p15p13p12-|
G|------------------------------------------------------------------------------------------|
D|------------------------------------------------------------------------------------------|
A|------------------------------------------------------------------------------------------|
E|------------------------------------------------------------------------------------------|

Guitar 3:
   T          T          T          T          T          T          T          T
e|------------------------------------------------------------------------------------------|
B|-17p15p13p12-----------19p15p13p12-----------17p15p13p12-----------19p15p13p12------------|
G|------------16p14p12p11-----------18p14p12p11-----------16p14p12p11-----------18p14p12p11-|
D|------------------------------------------------------------------------------------------|
A|------------------------------------------------------------------------------------------|
E|------------------------------------------------------------------------------------------|

=============================================
Guitar 2:
   T       T                T          T          T          T          T          T
e|-17p14p12-----------12h15-17p15p13p12-----------19p15p13p12-----------20p15p13p12------------|
B|---------17p14p12--------------------17p15p13p12-----------19p15p13p12-----------20p15p13p12-|
G|-----------------h14-------------------------------------------------------------------------|
D|---------------------------------------------------------------------------------------------|
A|---------------------------------------------------------------------------------------------|
E|---------------------------------------------------------------------------------------------|

Guitar 3:
   T       T               T          T          T          T          T          T
e|--------------------------------------------------------------------------------------------|
B|-17p14p12----------12h15-17p15p13p12-----------19p15p13p12-----------20p15p13p12------------|
G|---------16p13p11-------------------16p14p12p11-----------18p14p12p11-----------19p14p12p11-|
D|-----------------h9-------------------------------------------------------------------------|
A|--------------------------------------------------------------------------------------------|
E|--------------------------------------------------------------------------------------------|

=============================================
Guitar 2:
   T          T          T          T
e|-21p15p13p12-----------22p15p13p12------------|
B|------------21p15p13p12-----------22p15p13p12-|
G|----------------------------------------------|
D|----------------------------------------------|
A|----------------------------------------------|
E|----------------------------------------------|

Guitar 3:
   T          T          T          T
e|----------------------------------------------|
B|-21p15p13p12-----------22p15p13p12------------|
G|------------20p14p12p11-----------21p14p12p11-|
D|----------------------------------------------|
A|----------------------------------------------|
E|----------------------------------------------|

==============================================
Guitar 1:
e|-------------------------------------------------------------------------------------|
B|-15h17p15p13h15p13-------------13h15p13h15p13-------------13h15p13h15p13-------------|
G|-------------------16p14p12h14----------------16p14p12h14----------------16p14p12h14-|
D|-------------------------------------------------------------------------------------|
A|-------------------------------------------------------------------------------------|
E|-------------------------------------------------------------------------------------|

Guitar 1:
e|-----------------------------------------------------------------------------------|
B|-13h15p13h15p13p12-13p12h13p12-----------------------------------------------------|
G|-------------------------------14p12p10h12p10h12p10-9p7p5p\4h5h7p5p4h5p4-----------|
D|-------------------------------------------------------------------------7p5p3p2~~~|
A|-----------------------------------------------------------------------------------|
E|-----------------------------------------------------------------------------------|

Guitar 1:
e|------------------------------------------------------------------------------|
B|-----------------------------------17h18-17-----------17-18-20-18-17----------|
G|-----------------16-14h17p16-17-19----------19-17~~~~~---------------19-17-16-|
D|--------------16--------------------------------------------------------------|
A|-----------17-----------------------------------------------------------------|
E|-13--12-13--------------------------------------------------------------------|

Guitar 1:
e|-------------------------------------------------------------|
B|-------------------------------------------------------------|
G|-------------------------------------------------------------|
D|-19-17-17-17-15-14-15-15-14-12-14-14-12----12-12-------------|
A|----------------------------------------14-------14-12-12p10-|
E|-------------------------------------------------------------|

================================================
Guitar 2:
     1       1     1.5    1         1.5             1       1      1.5
e|-----------------------------------------------------------------------------|
B|-----------------20b--------------20b----------------------------20b---------|
G|-19b--19-19b--19------19b--19--19------19-------19b--19-19b---19------19--19-|
D|------------------------------------------17~~~------------------------------|
A|-----------------------------------------------------------------------------|
E|-----------------------------------------------------------------------------|

================================================
Guitar 2:
     1________          1____________
e|-17b--------(17)----17b~~~~~~~~~~~~-|
B|------------------------------------|
G|------------------------------------|
D|------------------------------------|
A|------------------------------------|
E|------------------------------------|

Guitar 3:
     1________          1____________
e|-12b--------(12)----12b~~~~~~~~~~~~-|
B|------------------------------------|
G|------------------------------------|
D|------------------------------------|
A|------------------------------------|
E|------------------------------------|

=================================================
Guitar 1:
e|-15-17-18p17p15-17-18-18----------------------------------------------------|
B|-------------------------17-19-20-20p19p17-19-20-20\12-14-15-15p14p12-14-15-|
G|----------------------------------------------------------------------------|
D|----------------------------------------------------------------------------|
A|----------------------------------------------------------------------------|
E|----------------------------------------------------------------------------|

Guitar 1:
e|-------------------------------------------------------------------------------|
B|-10-12-13-13p12p10-12-13-12-10-------------------------------------------------|
G|-------------------------------11-13-13-13-11--10--11p10-10-11-11-11-10-9-10p9-|
D|-------------------------------------------------------------------------------|
A|-------------------------------------------------------------------------------|
E|-------------------------------------------------------------------------------|
                                 ...........     ..        ................

Guitar 1:
e|-------------------------------------------10h12p10----------10-12h14h15p14p12----------------|
B|-----------------------------------8h10h/12---------12p10h12-------------------15p13p12-------|
G|-10-10-10-10-9~~~~~~------------7h9-----------------------------------------------------14-12-|
D|--------------------------5h7h/9--------------------------------------------------------------|
A|-----------------------5h7--------------------------------------------------------------------|
E|--------------------5h7-----------------------------------------------------------------------|
   ...........

Guitar 1:
     1__      .5__       1       1     1_______
e|--------------------------------------------------|
B|--------------------------------------------------|
G|-14b--(14)\---------/14b-----14b---14b~~~~~~~(14)-|
D|-----------/7b--(7)-------------------------------|
A|--------------------------------------------------|
E|--------------------------------------------------|

============================================
Guitar 2:
e|----------------------------------------------------------------------------|
B|----------------------------------------------------------------------------|
G|----------------------------------------------------------------------------|
D|-12p10p9h10p9---------------------------------------------------------------|
A|--------------12p10p9h12-14h15p14h15p14----------14h15p14h15p14-------------|
E|----------------------------------------17p15p14----------------17p15p13h15-|

Guitar 2:
e|----------------------------------------------------------------|
B|----------------------------------------------------------------|
G|----------------------------------16h17p16h17p16----------------|
D|----------------------14h15p14h16----------------19----17-15-14-|
A|-14h15p14h17p15p14h16-------------------------------20----------|
E|----------------------------------------------------------------|

Guitar 2:
e|----------------------------------------------------------------------------|
B|----------------------------------------------------------------------------|
G|----------------------------------------------------------------------------|
D|----------------------------------------------------------------------------|
A|-17p15p14h15h17p15p14h15p14h15p14h15p14-------------------------------------|
E|----------------------------------------17p15p13h15p13-\12p10p8h10p8h10p8p7-|

================================================
Guitar 1:
e|--------------------------------------------------------------------x-15h17p15p12-|
B|-----------------------------------------------------------x-12h/15---------------|
G|-----------------------------------------------------9h/16------------------------|
D|-----------------------------------12h/14-12-14p12-x------------------------------|
A|--------------------------------10------------------------------------------------|
E|-5----3--1~~~~~~-3--1--0--8h/12---------------------------------------------------|

Guitar 1:
           1____
e|--------------------------15p\12--0------------------------------------------------|
B|-15-17-15b~~~~(15)--17--0------------17p\15--0-------------------------------------|
G|-----------------------------------------------14p\12--0---------14p\12--------14/-|
D|----------------------------------------------------------12h/14--------12h/14-----|
A|-----------------------------------------------------------------------------------|
E|-----------------------------------------------------------------------------------|

Guitar 1:
e|-----------------------------------------------------------------------------------------|
B|-17h18p17h18p17--------------------------------------------------------------------------|
G|----------------17p16h17p16--------------------------------------------------------------|
D|----------------------------14h15p14h15--------------------------------------------------|
A|----------------------------------------14h15p14h15p14-8p7-------------------------------|
E|-----------------------------------------------------------8p7h8p7-10h12p10h12-8h10p8h10-|

=========================================================
Guitar 2:
e|------------------------------------------------------------------------------------------|
B|-12p8--8-12p8--8-12p8--8-12p8--8-12-15p12---12-15p12---12-15p12---12-15p12---10-14p10--10-|
G|-----9-------9-------9-------9-----------12---------12---------12---------11---------11---|
D|------------------------------------------------------------------------------------------|
A|------------------------------------------------------------------------------------------|
E|------------------------------------------------------------------------------------------|

Guitar 2:
e|-------------------------------------------------------------------------12\-|
B|-14p10----10-14p10----10-14p10----13-17p13----13-17p13----13-17p13----13-----|
G|-------11----------11----------14----------14----------14----------14--------|
D|-----------------------------------------------------------------------------|
A|-----------------------------------------------------------------------------|
E|-----------------------------------------------------------------------------|

Guitar 2:
e|-------------------------------------------------------------------------------------------|
B|---8-12p8---8-12p8---8-12p8---8-12p8----12-15p12----12-15p12----12-15p12----12-15p12----10-|
G|-9--------9--------9--------9--------12----------12----------12----------12----------11----|
D|-------------------------------------------------------------------------------------------|
A|-------------------------------------------------------------------------------------------|
E|-------------------------------------------------------------------------------------------|

Guitar 2:
e|-------------------------------------------------------------------------------------12-|
B|-14p10----10-14p10----10-14p10----10-14p10----13-17p13----13-17p13----13-17p13----13----|
G|-------11----------11----------11----------14----------14----------14----------14-------|
D|----------------------------------------------------------------------------------------|
A|----------------------------------------------------------------------------------------|
E|----------------------------------------------------------------------------------------|

Guitar 2:
e|--------------------------------------------------------------------------------|
B|---8-12p8---8-12p8----12-15p12----10-14p10----10-14p10----13-17p13----13-17---8-|
G|-9--------9--------12----------11----------11----------14----------14-------9---|
D|--------------------------------------------------------------------------------|
A|--------------------------------------------------------------------------------|
E|--------------------------------------------------------------------------------|

Guitar 2:
e|------------------------------------------------------------------------------------------|
B|-12p8---8-12p8----12-15p12----12-15p12----10-14p10----10-14p10----10-14p10----13-17p13----|
G|------9--------12----------12----------11----------11----------11----------14----------14-|
D|------------------------------------------------------------------------------------------|
A|------------------------------------------------------------------------------------------|
E|------------------------------------------------------------------------------------------|

Guitar 2:
e|-----------------------------------------------------------------------------------------------|
B|-13-17---8-12p8----12-15p12----10-14p10----13-17---8-12p8----12-15p12----10-14p10----13-17---8-|
G|-------9--------12----------11----------14-------9--------12----------11----------14-------9---|
D|-----------------------------------------------------------------------------------------------|
A|-----------------------------------------------------------------------------------------------|
E|-----------------------------------------------------------------------------------------------|

Guitar 2:
                                                 1___  1___  1________
e|-------------------------------------------------------------------------|
B|-12p8----12-15p12----10-14p10----13-17p13----15b---15b---15b~~~~~~~~(15)-|
G|------12----------11----------14----------14-----------------------------|
D|-------------------------------------------------------------------------|
A|-------------------------------------------------------------------------|
E|-------------------------------------------------------------------------|

=============================================================
Guitar 1:
                                                                                      1__
e|---------------------------------------------------------------------------------------|
B|---------------------------------------------------------------------------------------|
G|-/9-7-9-12-12-12-9-7--9-12-12-4-4-4-4-7-7-7-7--9-7-9-12-12-12-9-7--9-12-12-9-/15--15b--|
D|---------------------------------------------------------------------------------------|
A|---------------------------------------------------------------------------------------|
E|---------------------------------------------------------------------------------------|

Guitar 1:
e|------------------------------------------------------------------------|
B|------------------------------------------------------------------------|
G|-/9-7-9-12-12-12-9-7-9-12-12--4-4-4-4-7-7-7-7--11-12p11p9h11-12-11\-/11-|
D|------------------------------------------------------------------------|
A|------------------------------------------------------------------------|
E|------------------------------------------------------------------------|

===============================================================
Guitar 2:
e|-----------------------------------------------------------|
B|-----------------------------------------------------------|
G|-14h15p14p12-12-14-15--14-16-17p16p14-17-19-20p19p17-17h19-|
D|-----------------------------------------------------------|
A|-----------------------------------------------------------|
E|-----------------------------------------------------------|

================================================================
Guitar 1:
                                                                                      1__
e|---------------------------------------------------------------------------------------|
B|---------------------------------------------------------------------------------------|
G|-/9-7-9-12-12-12-9-7--9-12-12-4-4-4-4-7-7-7-7--9-7-9-12-12-12-9-7--9-12-12-9-/15--15b--|
D|---------------------------------------------------------------------------------------|
A|---------------------------------------------------------------------------------------|
E|---------------------------------------------------------------------------------------|

Guitar 1:
e|-------------------------------------------------------------------------|
B|-----------------------------12h14h15p14p12-\10p8p7----------------------|
G|-/9-7-9-12-12-12-9-7-9-12-12------------------------9p7-9-7-9-12-12-12-9-|
D|-------------------------------------------------------------------------|
A|-------------------------------------------------------------------------|
E|-------------------------------------------------------------------------|

Guitar 1:
e|-----------------------------------------|
B|-17p14-------------17p14-------------17\-|
G|-------15-15-15-15-------15-15-15-15-----|
D|-----------------------------------------|
A|-----------------------------------------|
E|-----------------------------------------|
         ...........       ...........

====================================================================
Guitar 3:
e|------------------------------------------------------------------------|
B|------------------------------------------------------------------------|
G|------------------------------------------------------------------------|
D|-----3-------3-------3-------5------3-------3-------3-------------------|
A|-2-2-3-2-2-2-3-2-2-2-3-2-2-2-5--2-2-3-2-2-2-3-2-2-2-3-------------------|
E|-0-0-1-0-0-0-1-0-0-0-1-0-0-0-3--0-0-1-0-0-0-1-0-0-0-1-0-3-2-0-0-2-1-0-0-|
   ...   .....   .....   .....    ...   .....   .....   .................

Guitar 3:
e|----------------------------------------------------------------|
B|----------------------------------------------------------------|
G|----------------------------------------------------------------|
D|-----3-------3-------3-------5------3-------3-------3-------3-2-|
A|-2-2-3-2-2-2-3-2-2-2-3-2-2-2-5--2-2-3-2-2-2-3-2-2-2-3-2-2-2-3-2-|
E|-0-0-1-0-0-0-1-0-0-0-1-0-0-0-3--0-0-1-0-0-0-1-0-0-0-1-0-0-0-1-0-|
   ...   .....   .....   .....    ...   .....   .....   .....

====================================================================
Guitar 2:
     1    1    1     1      1    1    1    1     1    1    1    1___
e|-15---15---15-----------15---15---17---------15---15---15---------|
B|-18b--18b--18b---17-----18b--18b--20b--17----18b--18b--18b--17----|
G|-----------------19b-------------------19b------------------19b---|
D|------------------------------------------------------------------| x2
A|------------------------------------------------------------------|
E|------------------------------------------------------------------|

====================================================================
Guitar 1:
       1___                                       1___
e|-------------------------------------------------------------------------|
B|-------------------------------------------------------------------------|
G|----7b---(7)p4--------------------------7-9----7b---(7)p4----------------|
D|----------------7--5-------------5-7h/9--------------------7-5-----------|
A|---------------------7-5h/9--7-7-------------------------------7-5h/7~~~-|
E|-0-------------------------------------------0---------------------------|


Guitar 1:
                          1___                           .5__     
e|-------------------------------------------------------------------------------|
B|-------------------------------------------------------------------------------|
G|-----------------------7b---(7)p4------------------12/14b--(14)p12----------12-|
D|----------------------------------7-5--7h/9--12/14-----------------14-12-14----|
A|----------12-------------------------------------------------------------------|
E|-12-15-12----15~~~~~-0---------------------------------------------------------|
   ..    ..

Guitar 1:
                                                                            1__
e|-----------------------------------------------------------------------------|
B|-----------------------------------------------------------------------------|
G|-14h/15----------------------------------------------------------------------|
D|--------12-14-15p14p12-------------------------------------------------------|
A|-----------------------12-14-15p14p12---------------------------10-12-(12)b--|
E|--------------------------------------/15-17-18p17p15--12-10-12--------------|

Guitar 1:
       1___                                   .5____
e|----------------------------------------------------------------------------------------|
B|----------------------------------------------------------------------------------------|
G|-x--7b---(7)p4-----------------------7-9\---7b----(7)p4---------------------------------|
D|-x-------------7-5--------------7h/9--------------------7-5-----------------------------|
A|-x-----------------7-5h/7--7-10-----------------------------7-5h/7~~~~---------12-------|
E|------------------------------------------0---------------------------12-15-12----15~~~~|
   .                                                                    ..    ..

Guitar 1:
e|--------------------------------------------------------------|
B|--------------------------------------------15h17h18p17p15-17-|
G|---7b---(7)p4-------------------------------------------------|
D|--------------7-5-7h/9--12--14h15p14p12-14--------------------|
A|--------------------------------------------------------------|
E|-0------------------------------------------------------------|


Guitars 1 and 2: Guitar 1 is on the high E string, and Guitar 2 is on the low E string.
Just pick the string once, and hammer on and pull off all of the notes without picking any.
                                                                 1______
                                                                 1______
e|-0h3h5p3p0h5h7p5p0h7h10p7p0h10h12p10p0h12h15p12p0h15h17p15p0h17b------(17)-|
B|---------------------------------------------------------------------------|
G|---------------------------------------------------------------------------|
D|---------------------------------------------------------------------------|
A|-------------------------------------------------------------12b------(12)-|
E|-0h3h5p3p0h5h7p5p0h7h10p7p0h10h12p10p0h12h15p12p0h15h17h15p0---------------|

==========================================================
Guitar 1:
                    .5__                         1_______               .5__
e|------------------------------------------------------------------------------------|
B|---------------------------------------12--(12)b~~~12~~(12)-------------------------|
G|----------9----9-11b--(11)p9----9----9------------------------9----9-11b--(11)p9----|
D|-10-9h/11---11---------------11---11-----------------------11---11---------------11-|
A|------------------------------------------------------------------------------------|
E|------------------------------------------------------------------------------------|
   ..    ..   ..               ..   ..                            ..    

Guitar 1:
                                        .5__                   1_________
e|----------------------------------------------------------------------------|
B|-----------------------------------------------------------12b----12---(12)-|
G|------------------------------9----9-11b--(11)p9----9----9------------------|
D|-14h/15p\14------9h/11-9--/11---11---------------11---11--------------------|
A|------------14--------------------------------------------------------------|
E|----------------------------------------------------------------------------|

Guitar 1:
                                                                             .5__
e|--------------------------------------------------------------------------------------------|
B|--------------------------------------------------------------------------------------------|
G|----------------13h15h16p15p13-------------------13h15h16p15p13-----------------------------|
D|-14h16h17p16p14----------------17p16p14-14h16h17----------------17p16p14--16b--(16)p9-11-9~~|
A|--------------------------------------------------------------------------------------------|
E|--------------------------------------------------------------------------------------------|

Guitar 1:
      T           T           T           T           T           T
e|----------------------------------------------------------------------------|
B|----------------------------------------------------------------------------|
G|-16-21p16p15h16-20p16p15h16-21p16p15h16-20p16p15h16-21p16p15h16-20p16p15h16-|
D|----------------------------------------------------------------------------|
A|----------------------------------------------------------------------------|
E|----------------------------------------------------------------------------|

Guitar 1:
   T           T           T           T           T           T           T           T       1___
e|-------------------------------------------------------------------------------------------------|
B|-------------------------------------------------------------------------------------------15b---|
G|-21p16p15h16-20p16p15h16-21p16p15h16-20p16p15h16-21p16p15h16-20p16p15h16-20p16p15h16-20p16-------|
D|-------------------------------------------------------------------------------------------------|
A|-------------------------------------------------------------------------------------------------|
E|-------------------------------------------------------------------------------------------------|

=========================================================================
Guitar 2:
         T    T        T    T        T    T        T    T       T     T         T     T
e|-------12p7-12p7p6p5-12p7-12p7p6p5-12p7-12p7p6p5-12p7-12p7h10-15p10-15p10p9p8-15p10-15p10p9p8-|
B|-11h13----------------------------------------------------------------------------------------|
G|----------------------------------------------------------------------------------------------|
D|----------------------------------------------------------------------------------------------|
A|----------------------------------------------------------------------------------------------|
E|----------------------------------------------------------------------------------------------|

Guitar 2:
   T     T         T     T       T     T         T     T         T     T         T     T
e|-15p10-15p10p9p8-15p10-15p10p9-14p10-14p10p9p8-14p10-14p10p9p8-14p10-14p10p9p8-14p10-14p10p9p8-|
B|-----------------------------------------------------------------------------------------------|
G|-----------------------------------------------------------------------------------------------|
D|-----------------------------------------------------------------------------------------------|
A|-----------------------------------------------------------------------------------------------|
E|-----------------------------------------------------------------------------------------------|

============================================================================
Guitar 1:
               1__________        1______        .5     1    .5     1___
e|-12---12---12b~~~~~~~~~~(12)--12b~~~~~~(12)--12pb--12pb--12pb--12pb--(12)--|
B|---------------------------------------------------------------------------|
G|---------------------------------------------------------------------------|
D|---------------------------------------------------------------------------|
A|---------------------------------------------------------------------------|
E|---------------------------------------------------------------------------|

Guitar 1:
           .5      .5       1      1    .5     1        1__                     1___
e|--9--9-------9-------9-------------------------------------------------------------------|
B|-12----12pb----12pb----12pb----17b--17pb--17pb--17--19b--(19)-17-------------------------|
G|-----------------------------------------------------------------18~~~18-16-18b--(18)-18-|
D|-----------------------------------------------------------------------------------------|
A|-----------------------------------------------------------------------------------------|
E|-----------------------------------------------------------------------------------------|

Guitar 1:
e|----------------------------------14h15-15----------------------------------|
B|-14h16-17-17p14-14-16h17-17-14-17----------14-14-16h17-17-14-14h16-17-14-14-|
G|----------------------------------------------------------------------------|
D|----------------------------------------------------------------------------|
A|----------------------------------------------------------------------------|
E|----------------------------------------------------------------------------|

Guitar 1:
                                                                         .5___
e|-14-16-17----------------------14-15p14--------------------------------------------------|
B|----------14-14-16-17p16-14-17----------14-14-16-17-16-14--------------------------------|
G|----------------------------------------------------------16-15-13-13-----------13-16-13-|
D|----------------------------------------------------------------------11b--(11)----------|
A|-----------------------------------------------------------------------------------------|
E|-----------------------------------------------------------------------------------------|

Guitar 1:
     1        1        1         1
e|-------9--------9---------10--------11--|
B|-----9--------9--------10--------11-----|
G|-11b------11b------12b-------13b--------|
D|----------------------------------------|
A|----------------------------------------|
E|----------------------------------------|

==============================================================
Guitar 2:
     1    1    1     1      1    1    1    1     1    1    1    1___
e|-15---15---15-----------15---15---17---------15---15---15---------|
B|-18b--18b--18b---17-----18b--18b--20b--17----18b--18b--18b--17----|
G|-----------------19b-------------------19b------------------19b---|
D|------------------------------------------------------------------| x2
A|------------------------------------------------------------------|
E|------------------------------------------------------------------|


==============================================================
Guitar 1:
      1__              .5__                                            .5___
e|---------------------------------------------------------------------------------|
B|---------------------------------------------------------------------------------|
G|---7b--(7)-4-------------------------7-9---19-21-19--17p14-----------------------|
D|-------------7-5---------------5h7h9----------------------h17-------19b--(19)-19-|
A|-----------------7-5h7b--(7)-7--------------------------------19-17--------------|
E|-0---------------------------------------0---------------------------------------|

Guitar 1:
               1___                            1___         .5___
e|-------12h/15b--(15)--15------------------------------------------------------------|
B|-----13-------------------17~~~~~~15-17-15------------------------------------------|
G|---14--------------------------------------14b--(14)--12----------------21----------|
D|-15---------------------------------------------------------------------------------|
A|-------------------------------------------------------------------/19-----19-------|
E|---------------------------------------------------------17b--(17)------------17-15-|

Guitar 1:
                                                                          1_____
e|-------------------------------------------------------12h15p12--------------------|
B|-------------------------------------------------12h15----------15-12-15b-----(15)-|
G|-------------------------------12h15-------12h15-----------------------------------|
D|-------------12h15-------12h15-------12h15-----------------------------------------|
A|-------12h15-------12h15-----------------------------------------------------------|
E|-12h15-----------------------------------------------------------------------------|

===================================================================
Guitar 2:
                     1__                           1______                  1___
e|-------------------------------------------------------------------------------------|
B|-------------------------------------------------------------------------------------|
G|------------------------------------------16--16pb~~~~~~(16)-------------------------|
D|--------14----14-16b--(16)p14----14----14----------------------14----14-16b--(16)p14-|
A|-14h/16----16-----------------16----16----------------------16----16-----------------|
E|-------------------------------------------------------------------------------------|
       ..    ..                 ..    ..                      ..    ..

Guitar 2:
                                                      1__                      1______
e|-----------------------------------------------------------------------------------------|
B|-----------------------------------------------------------------------------------------|
G|---------------------------------------------------------------------------16b--16--(16)-|
D|----14h/16p\14---------------------------14----14-16b--(16)p14----14----14---------------|
A|-16------------14~~~14h/16-14p\9--14h/16----16-----------------16----16------------------|
E|-----------------------------------------------------------------------------------------|

Guitar 2:
e|---------------------------------------------------------------------------------------------|
B|--------------------------------------------------------------------------14h16h17p16p14-----|
G|---------------------------------------------------------------------------------------------|
D|-------------------------------------14h16h17p16p14-----------14-16-17-17----------------17\-|
A|-14h16h17p16p14-----------14-16-17-17--------------17-14-17-17-------------------------------|
E|---------------17-14-17-17-------------------------------------------------------------------|
                 .......................             .......................

===================================================================
Guitar 1: use a wah pedal here. Listen for the rhythm of the first four notes on this bar.
                                                         .5___
e|----------------------------------------------------------------|
B|-15--14--13--12-------------------------------------------------|
G|-16--15--14--12-------------17h/20p\17--------------------------|
D|-------------------17h19h20------------20p19p17-19-17-19b--(19)-|
A|----------------------------------------------------------------|
E|----------------------------------------------------------------|

Guitar 1:
e|------------------------------------------------------------------------------|
B|------------------------------------------------------------------------------|
G|----------16h/21p\16----------------------------------------------------------|
D|-17h19h20------------20p19p17-------------17~~~-------------------------------|
A|------------------------------20-19-17-17-------------------------------------|
E|-----------------------------------------------12h14h15-15-15--17h19h20-20-20-|
                                ...........

Guitar 1:
                                                 1__________
e|-----------------------------------------------------------------------------------------|
B|-----------------------------------------------------------------------------------------|
G|--------------------------------16~~~~19--16-19b--(19)b--(19)p16-18-19-18-16-------------|
D|-----------------17h19h20-20-20----------------------------------------------20-20-18-17-|
A|-17h19h20-20-20--------------------------------------------------------------------------|
E|-----------------------------------------------------------------------------------------|

Guitar 1:
                                                  1    1     1     1
e|--------------------------------------------------------------------|
B|-----------------------------------------------5----5-----4-----3---|
G|-----------------------------------------------7b---7b----6b----5b--|
D|--------------------------------------------------------------------|
A|-20-20-18-17--------------------------------------------------------|
E|-------------20-17-17-15-17-18-19~~~~~-17\---0----------0-----0-----|
                                               .          .     .

=============================================================
Guitar 2: Pick the pinch harmonics of the open strings, then bend behing the nut. Or if you have a
Floyd Rose, then just raise the whammy bar up. A whammy pedal would probably be the easiest.
        2__          1__                                            1    .5     1    .5    1_
e|----------------------------------------------10-12h/15--15b---15pb--15pb--15pb--15b--(15)-|
B|--------------------------------------------10---------------------------------------------|
G|----0*b--(0)------------------------------11-----------------------------------------------|
D|-0---------------0*b--(0)------4--/7h10h12-------------------------------------------------|
A|---------------------------2h5-------------------------------------------------------------|
E|--------------0----------------------------------------------------------------------------|

Guitar 2:
                .5       .5         1     1          1       1___                    1.5____
e|-12--12--12-------12--------12---------------------------17b--(17)-----------------------------|
B|-----15-----15pb-----15pb------15pb---20b----20-20pb--20-----------20--17--17--15--17b----(17)-|
G|-----------------------------------------------------------------------------------------------|
D|-----------------------------------------------------------------------------------------------|
A|-----------------------------------------------------------------------------------------------|
E|-----------------------------------------------------------------------------------------------|

===============================================================
This is the hardest part of the whole song: Pick the notes with the I above them with
whichever finger you're tapping with. Yeah, I know, it's f'ing hard, but it's John 5.
If you look up on youtube: "John 5 Instructional Video" then you'll see him playing
Guitar 1's part. He's not telling you how to play it, because it's a teaser trailer for
his next DVD, but you can at least see how to play it, which is how I got this down.
Guitar 2 is just playing in a Minor 3rd of Guitar 1, which is what most duel guitars do.

Guitar 1:
         T           I     T           I         I     T           I     T           I
e|-------------------------18p12-----------------------------------------18p12----------------|
B|-------18p12h16p14------------h16p14-----------------18p12h16p14------------h16p14----------|
G|-------------------12h16-------------12h16p12--------------------12h16-------------12h16p12-|x7
D|-12h16-----------------------------------------12h16----------------------------------------|
A|--------------------------------------------------------------------------------------------|
E|--------------------------------------------------------------------------------------------|

Guitar 2: This comes in after Guitar 1 plays the riff for the fourth time.
        T         I    T         I       I      T         I    T         I
e|---------------------12p7------------------------------------12p7-------------|
B|------12p7h10p8----------h10p8----------------12p7h10p8----------h10p8--------|
G|----------------7h10-----------7h10p7------------------
Добавлено: 06.04.2012
Другие материалы по этой песне:

Страница создана 27.02.2012
http://primanota.ru/john-5/black-widow-of-la-porte-chords.htm
Привет, Гость.
Предлагаем пройти революционный курс по гитаре.
Подарок от PrimaNota.Ru, забирай!