PrimaNota.ru - самый крупный в мире бесплатный архив песенных текстов, аккордов, табулатур и нот


John 5 - Damaged - таба, видео

Регистрация Запомнить меня
Войти через:  Facebook Google Twitter Vk Yandex Mail.ru

John 5 - Damaged - таба, видео

Печатать
Просмотров: 413
------
JOHN 5
------

-------
DAMAGED
-------

-----------------------------
From the album "Songs for Sanity"
Transcribed By Cody Jardine
Tabbed by members of http://www.john-5.com/forum/
deathshadow519@hotmail.com
-----------------------------

Notes: This isn't perfect
       Timing is probably off, just listen to the song

UPDATES:
   (00/00/0000) - ________

Tuning - Drop D, low to high (DADGBE)

-----------------------------------------------------------------------------
  Intro (2x)
-----------------------------------------------------------------------------

Lead Guitar
e|---------------------8p6p5\3--/10---|
B|--3-6p5\1-/8p6p5\3------------------|
G|------------------------------------|
D|------------------------------------|
A|------------------------------------|
D|------------------------------------|

Rhythm Guitar
e|------------------------------------|
B|------------------------------------|
G|------------------------------------|
D|------------------------------------|
A|------------------------------------|
D|--0-0-0-0-0-0-0-0-0-0-0-0-0-0-0-0---|
  pm. . . . . . . . . . . . . . . .

-----------------------------------------------------------------------------

Lead Guitar
          [3x]
e[-------------------]-|------------------8p6p5\3--/10--|
B[--3-6p5p3-/8p6p5\3-]-|-3-6p5p3-/8p6p5\3---------------|
G[-------------------]-|--------------------------------|
D[-------------------]-|--------------------------------|
A[-------------------]-|--------------------------------|
D[-------------------]-|--------------------------------|

Rhythm Guitar
e[-------------------]-|--------------------------------|
B[-------------------]-|--------------------------------|
G[-------------------]-|--------------------------------|
D[-------------------]-|--------------------------------|
A[-------------------]-|--------------------------------|
D[---0---0---0---0---]-|-0-0-0-0-0-0-0-0-0-0-0-0-0-0-0-0|
   PM.   .   .   .       . . . . . . . . . . . . . . . .

-----------------------------------------------------------------------------
  Main Riff (4x)
-----------------------------------------------------------------------------

Lead Guitar
e[---------------------------------]
B[---------------------------------]
G[---------------------------------]
D[---------------------------------]
A[--0-3-3-0-6\--0-3-3-0-6\--0-3-0--]
D[--0-3-3-0-6\--0-3-3-0-6\--0-3-0--]

Rhythm Guitar
e[---------------------------------]
B[---------------------------------]
G[---------------------------------]
D[---------------------------------]
A[--0-3-3-0-6\--0-3-3-0-6\--0-3-0--]
D[--0-3-3-0-6\--0-3-3-0-6\--0-3-0--]

-----------------------------------------------------------------------------
  Verse
-----------------------------------------------------------------------------

Lead Guitar
e|--8-10-8-10~--10-8----------------------10-8-----------------|
B|-------------------10-9-----------------------10-9-----------|
G|------------------------7-5-----------<7>----------------7~--|
D|----------------------------5brp3------------------10-7------|
A|------------------------------------5~-----------------------|
D|-------------------------------------------------------------|

-----------------------------------------------------------------------------

Lead Guitar
e--8-10-8-10~---10-8-10-8-13b14~------------14-16-17-19-21^~---|
B----------------------------------15-16-----------------------|
G--------------------------------------------------------------|
D--------------------------------------------------------------|
A--------------------------------------------------------------|
D--------------------------------------------------------------|

-----------------------------------------------------------------------------

Lead Guitar
e--------------------------------------------------------------|
B--13-14-15-14------------------------------------10-------10--|
G-----------------11b12rp10----------------11b12----11b12------|
D-------------------------------10/12--------------------------|
A--------------------------------------------------------------|
D--------------------------------------------------------------|

-----------------------------------------------------------------------------

Lead Guitar
e|----------------------------------------------GRADUALLY------|
B|-------------------------------------------*--------BEND-----|
G|--11b12rp10-------------11b12r11-11b12r11-11b12~~~-------UP--|
D|---------------12-10-----------------------------------------|
A|-------------------------------------------------------------|
D|-------------------------------------------------------------|

-----------------------------------------------------------------------------

Lead Guitar
e|-------------------------------10--------------------------10|
B|---------------10---------------------------10---------------|
G|-----10-11-12---------11-12-10------10-11-12------10-11-12---|
D|--12---------------12-------------12------------12-----------|
A|-------------------------------------------------------------|
e|-------------------------------------------------------------|

-----------------------------------------------------------------------------

Lead Guitar
e|-----------------------|
B|------------------10---|
G|------10-11-12---------|
D|--12-------------------|
A|-----------------------|
e|-----------------------|

-----------------------------------------------------------------------------

Lead Guitar
e|------------------------------------------------10-11-13-14-15b17~~--|
B|-----------------10-11-13-14--10-11-13-14----------------------------|
G|-----10-11-12--------------------------------------------------------|
D|--12-----------------------------------------------------------------|
A|---------------------------------------------------------------------|
e|---------------------------------------------------------------------|

-----------------------------------------------------------------------------
  Rhythm Guitar Under Verse (4x)
-----------------------------------------------------------------------------

e|----------------------------------------------------|
B|----------------------------------------------------|
G|----------------------------------------------------|
D|------------------------------------------------0---|
A|--0-0---0-0---0-0---0-0---0---0---0-3-3-0-5-5-0-0---|
D|--0-0---0-0---0-0---0-0---0---0---0-3-3-0-5-5-0-0---|

-----------------------------------------------------------------------------
  Chorus
-----------------------------------------------------------------------------

Lead Guitar
e|------------------------------------------------------------------|
B|--8^-6------------8^-6------------8^-6-----------8--6--4----------|
G|--------7--7--7---------5--5--5---------4--4--4-----------3--3--2-|
D|------------------------------------------------------------------|
A|------------------------------------------------------------------|
D|------------------------------------------------------------------|

Lead Guitar
e|-15^-13---------15^-13----------15^-13----------15-13-11----------|
B|-------15-15-15--------13-13-13--------12-12-12----------11-11-10-|
G|------------------------------------------------------------------|
D|------------------------------------------------------------------|
A|------------------------------------------------------------------|
D|------------------------------------------------------------------|

Rhythm Guitar
e|------------------------------------------------------------------|
B|------------------------------------------------------------------|
G|------------------------------------------------------------------|
D|------------------------------------------------------------------|
A|--0--0-0-0-0-0-0--3--3-3-3-3-3-3--5--5-5-5-5-5-5--8--8-8--7--7-7--|
D|--0--0-0-0-0-0-0--3--3-3-3-3-3-3--5--5-5-5-5-5-5--8--8-8--7--7-7--|
 PM .  . . . . . .  .  . . . . . .  .  . . . . . .  .  . .  .  . .

-----------------------------------------------------------------------------
  Main Riff (4x)
-----------------------------------------------------------------------------

Lead Guitar
e[---------------------------------]
B[---------------------------------]
G[---------------------------------]
D[---------------------------------]
A[--0-3-3-0-6\--0-3-3-0-6\--0-3-0--]
D[--0-3-3-0-6\--0-3-3-0-6\--0-3-0--]

Rhythm Guitar
e[---------------------------------]
B[---------------------------------]
G[---------------------------------]
D[---------------------------------]
A[--0-3-3-0-6\--0-3-3-0-6\--0-3-0--]
D[--0-3-3-0-6\--0-3-3-0-6\--0-3-0--]

-----------------------------------------------------------------------------
  Verse
-----------------------------------------------------------------------------

Lead Guitar
e|--8-10-8-10~--10-8---------------------------------------------------|
B|--------------------10-9------------------------------------------8\-|
G|--------------------------7-5---------------------------------5-7----|
D|------------------------------7-5--------------5-6-5-6-8-9-----------|
A|-----------------------------------8-5--5-7-8------------------------|
D|---------------------------------------------------------------------|

-----------------------------------------------------------------------------

Lead Guitar
e|--/13--------------------------------------------------------------------------8\-|
B|---------------------------------------------------------------6p5----7p6p5-------|
G|------7-5---------------------------------------5\----5h6h8----8p6--------6-------|
D|----------6-5----------------6p5\3---8p6p5-------8--------------------------------|
A|---------------8\---5h7h8p5-------6--------8--------------------------------------|
D|----------------------------------------------------------------------------------|

-----------------------------------------------------------------------------

Lead Guitar
                        T       T       T       T    T       T       T
e|-10b11--10b11-----------------------------------------------------------|
B|---------------------15p12p9-15p12p9-15p12p9-15p6-15p12p9-15p12p9-15p6--|
G|-------7~-----7~-7\-----------------------------------------------------|
D|------------------------------------------------------------------------|
A|------------------------------------------------------------------------|
D|------------------------------------------------------------------------|

-----------------------------------------------------------------------------

Lead Guitar
     T       T       T       T       T       T
e|---------------------------------------------------|
B|--15p13p9-15p13p9-15p12p9-15p12p9-15p10p9-15p10p9--|
G|---------------------------------------------------|
D|---------------------------------------------------|
A|---------------------------------------------------|
D|---------------------------------------------------|

-----------------------------------------------------------------------------

Lead Guitar
      T      T
e|------------------|
B|---15p9p7-15p9p7--|
G|------------------|
D|------------------|
A|------------------|
D|------------------|

-----------------------------------------------------------------------------

Lead Guitar
e|-----------------------------------------------------9h10-/15--|
B|--10^----------------------------------------9h10h12-----------|
G|--10^-12-10----10---------------------7h9h10-------------------|
D|-------12-10-12----12~---------7h9h10--------------------------|
A|------------------------7h8h10---------------------------------|
D|---------------------------------------------------------------|

-----------------------------------------------------------------------------

Lead Guitar
e|--13-12--------|
B|--------15-13--|
G|---------------|
D|---------------|
A|---------------|
D|---------------|

-----------------------------------------------------------------------------

Lead Guitar
e|--------12-15/18-17-15-----------15-13-12-------15-13-12-------------------|
B|--13-15-----------------18-16-15-----------15-13-----------15-13-10--------|
G|---------------------------------------------------------------------12^---|
D|---------------------------------------------------------------------------|
A|---------------------------------------------------------------------------|
D|---------------------------------------------------------------------------|

-----------------------------------------------------------------------------
  Rhythm Guitar Under Verse (4x)
-----------------------------------------------------------------------------

e|----------------------------------------------------|
B|----------------------------------------------------|
G|----------------------------------------------------|
D|------------------------------------------------0---|
A|--0-0---0-0---0-0---0-0---0---0---0-3-3-0-5-5-0-0---|
D|--0-0---0-0---0-0---0-0---0---0---0-3-3-0-5-5-0-0---|

-----------------------------------------------------------------------------
  Chorus
-----------------------------------------------------------------------------

Lead Guitar
e|------------------------------------------------------------------|
B|--8^-6------------8^-6------------8^-6-----------8--6--4----------|
G|--------7--7--7---------5--5--5---------4--4--4-----------3--3--2-|
D|------------------------------------------------------------------|
A|------------------------------------------------------------------|
D|------------------------------------------------------------------|

Lead Guitar
e|-15^-13---------15^-13----------15^-13----------15-13-11----------|
B|-------15-15-15--------13-13-13--------12-12-12----------11-11-10-|
G|------------------------------------------------------------------|
D|------------------------------------------------------------------|
A|------------------------------------------------------------------|
D|------------------------------------------------------------------|

Rhythm Guitar
e|------------------------------------------------------------------|
B|------------------------------------------------------------------|
G|------------------------------------------------------------------|
D|------------------------------------------------------------------|
A|--0--0-0-0-0-0-0--3--3-3-3-3-3-3--5--5-5-5-5-5-5--8--8-8--7--7-7--|
D|--0--0-0-0-0-0-0--3--3-3-3-3-3-3--5--5-5-5-5-5-5--8--8-8--7--7-7--|
  PM.  . . . . . .  .  . . . . . .  .  . . . . . .  .  . .  .  . .

-----------------------------------------------------------------------------
  Breakdown
-----------------------------------------------------------------------------

e|---------------------------------|
B|---------------------------------|
G|---------------------------------|
D|---------------------------------|
A|--0-1-1-0-1-1-0-1-1-0-1-1-0-1-0--|
D|--0-1-1-0-1-1-0-1-1-0-1-1-0-1-0--|

-----------------------------------------------------------------------------
  Solo (3x)
-----------------------------------------------------------------------------

Rhythm Guitar
e|------------------------------------------------------|
B|------------------------------------------------------|
G|------------------------------------------------------|
D|------------------------------------------------------|
A|--2-2--2-2--2-2--2-2--5--5--2-2--2-2--2-2--2-2--0--0--|
D|--2-2--2-2--2-2--2-2--5--5--2-2--2-2--2-2--2-2--0--0--|

Rhythm Guitar
e|---------------------------------|
B|---------------------------------|
G|---------------------------------|
D|---------------------------------|
A|--2-2--2-2---5b6r5---2-2---2--2--|
D|--2-2--2-2---5b6r5---2-2---2--2--|

-----------------------------------------------------------------------------
  Chorus (2x)
-----------------------------------------------------------------------------

Lead Guitar
e|------------------------------------------------------------------|
B|--8^-6------------8^-6------------8^-6-----------8--6--4----------|
G|--------7--7--7---------5--5--5---------4--4--4-----------3--3--2-|
D|------------------------------------------------------------------|
A|------------------------------------------------------------------|
D|------------------------------------------------------------------|

Lead Guitar
e|-15^-13---------15^-13----------15^-13----------15-13-11----------|
B|-------15-15-15--------13-13-13--------12-12-12----------11-11-10-|
G|------------------------------------------------------------------|
D|------------------------------------------------------------------|
A|------------------------------------------------------------------|
D|------------------------------------------------------------------|

Rhythm Guitar
e|------------------------------------------------------------------|
B|------------------------------------------------------------------|
G|------------------------------------------------------------------|
D|------------------------------------------------------------------|
A|--0--0-0-0-0-0-0--3--3-3-3-3-3-3--5--5-5-5-5-5-5--8--8-8--7--7-7--|
D|--0--0-0-0-0-0-0--3--3-3-3-3-3-3--5--5-5-5-5-5-5--8--8-8--7--7-7--|
  PM.  . . . . . .  .  . . . . . .  .  . . . . . .  .  . .  .  . .

-----------------------------------------------------------------------------
  Outro (2x)
-----------------------------------------------------------------------------

Lead Guitar
e|---------------------8p6p5\3--/10---|
B|--3-6p5\1-/8p6p5\3------------------|
G|------------------------------------|
D|------------------------------------|
A|------------------------------------|
D|------------------------------------|

Rhythm Guitar
e|------------------------------------|
B|------------------------------------|
G|------------------------------------|
D|------------------------------------|
A|------------------------------------|
D|--0-0-0-0-0-0-0-0-0-0-0-0-0-0-0-0---|
  pm. . . . . . . . . . . . . . . .

-----------------------------------------------------------------------------

Lead Guitar
          [3x]
e[-------------------]-|------------------8p6p5\3--/10--|
B[--3-6p5p3-/8p6p5\3-]-|-3-6p5p3-/8p6p5\3---------------|
G[-------------------]-|--------------------------------|
D[-------------------]-|--------------------------------|
A[-------------------]-|--------------------------------|
D[-------------------]-|--------------------------------|

Rhythm Guitar
e[-------------------]-|--------------------------------|
B[-------------------]-|--------------------------------|
G[-------------------]-|--------------------------------|
D[-------------------]-|--------------------------------|
A[-------------------]-|--------------------------------|
D[---0---0---0---0---]-|-0-0-0-0-0-0-0-0-0-0-0-0-0-0-0-0|
   PM .   .   .   .      . . . . . . . . . . . . . . . .

That's it!

www.john-5.com
Comment or Complaint - deathshadow519@hotmail.com

Enjoy!
Добавлено: 30.06.2012
Другие материалы по этой песне:

Страница создана 06.03.2012
http://primanota.ru/john-5/damaged-chords.htm
Привет, Гость.
Предлагаем пройти революционный курс по гитаре.
Подарок от PrimaNota.Ru, забирай!