PrimaNota.ru - самый крупный в мире бесплатный архив песенных текстов, аккордов, табулатур и нот


John 5 - Fiesty Cadavers - таба, видео

Регистрация Запомнить меня
Войти через:  Facebook Google Twitter Vk Yandex Mail.ru

John 5 - Fiesty Cadavers - таба, видео

Печатать
Просмотров: 391
Уроки эстрадного вокала в Санкт-Петербурге
+ - Tap 
h - Hammer on
p - Pull off
b - Bend

|--------7h10--14+p10p8p7---------------------------------------|
|-------------------------13+p9p8p7-----------------------------|
|----------------------------------12+p9p8p7--------------------|
|-----10------------------------------------11+p9p8p7-----------|
|---9------------------------------------------------10+p9p8p7--|
|-7-------------------------------------------------------------|

|-------------|
|-------------|
|-------------| Play this the first time...
|-------------| 
|-------------|
|-5-7-5-777-8-|

Then..

|-------------|
|-------------|
|-------------|      If you're not a complete retard you will know
|-------------|      what I mean.    
|-------------| 
|-5-7-5-7b(8)-|
Добавлено: 30.05.2012
Другие материалы по этой песне:

Страница создана 28.03.2012
http://primanota.ru/john-5/fiesty-cadavers-chords.htm
Привет, Гость.
Предлагаем пройти революционный курс по гитаре.
Подарок от PrimaNota.Ru, забирай!