PrimaNota.ru - самый крупный в мире бесплатный архив песенных текстов, аккордов, табулатур и нот


Joe Satriani - Time Machine - таба, видео

Регистрация Запомнить меня
Войти через:  Facebook Google Twitter Vk Yandex Mail.ru

Joe Satriani - Time Machine - таба, видео

Печатать
Просмотров: 152
hello everybody,im pink floyd fish a new tabber on ultimate 
guitar.i am the one who tabbed out the intro of bucketheads 
gigan.and i was wondering if any one could ever tab out time
 machine by joe satriani,so i am a hero for tabbing out this
 song so everyone can see it who dont have guitar pro or power
 tabs.i think that posting those tabs is stupid,and i dont have
 that software so i ant look at the songs i want to learn.
this tab does not have the little ending thing an the
solo im so sorry i could not tab those parts.and could all
the people who tabbed out the guitar pro or power tab send
me the tab to,pinkfloydfish@gmail.com,all with no caps,
please please please.

intro drums first
e-----------------------------------------------------------------------|
b-----------------------------------------------------------------------|
g-----------------------------------13x1313----13x13x13/14x16x14x1313/14|
dx\x\x\x-0-----------------------0-0-0x-0-0-0-0-0x-0x0-/-0x-0x-0x-0-0/-0|
ax\x\x\x-0--------------------------------------------------------------|
dx\x\x\x-0--------------------------------------------------------------|

|-------------------------------------|
|-------------------------------------|
|x13x13/14x13x13/14x13x13x13x13x13/14x| AND go on
|x-0x-0/-0x-0x-0/-0x-0x-0x-0x-0x-0/-0x|
|-------------------------------------|
|-------------------------------------|

play the d string all through this part.

this part.ha ha
|-----------------------------------------7xx7/9-9---9xx9/10----10xx12-14|
|-77----7x7/99----9x9/1010----10x10/12----7xx7/7-7---7xx7/-x-----xxx-x--x|
|-77----7x7/-7----7x7/-7-7-----7x-7/-7----7xx7/7-7---7xx7/-7-----7xx-9-11|
|-0000000x0/0000000x0/0000000000x-0/0000000xx000-00000000/00000000xx00000|
|------------------------------------------------------------------------|
|------------------------------------------------------------------------|
 
this riff 3x then
                       6x         rep however many times
|---10xx12-14|----|1010x10x|9979xx9979xx99xx---------------7|
|----xxx-x--x|-----|x-xx-7x|7777xx7777xx77xx9x99xx9x9x9/10x7|
|----7xx-9-11|-----|7-7x-7x|7777xx7777xx77xx7x77xx7x7x7/-7x7|
|00000xx00000|00000|000000x|--------------------------------|
|------------|-----|----------------------------------------|
|------------|-----|----------------------------------------|


|---------------------------------------------------------------------|
|---------------------------------------------------------------------|
|---------------------------------------------------------------------|
|0--\44/6/7\6-66/7/9-11b12-9\7\6b76\4---\44/6/7/9-99/11/12-14-\12/11/9|
|0--------------------------------------------------------------------|
|0--------------------------------------------------------------------|

|----9---------------------------------------------------------------|
|1010-10-7b10slow bend-9b10br9-7---1010710-7b10-9b10br9-7------------|
|--------------------------------------------------------------------|
|----------------------------------------------------------\44/6/7/9-|
|--------------------------------------------------------------------|
|--------------------------------------------------------------------|
                                                             whammy
|--------------------|----------------------------------------------|
|--------------------|13-15-17b20-17-13------------------13---------|
|--------------------|-----------------15141212--14b15-12-----------|
|99-/11/12-14---1414-|----------------------------------------------|
|--------------------|------------------------------------------9/10|
|--------------------|----------------------------------------------|

|---------------------------------------------------------------------|
|--------------13-15-17b18br17-15-13------------------13--13-17b18br17|
|-----------------------------------15141212--14b15-12----------------|
|---------------------------------------------------------------------|
|9/10-9/10-9/10-------------------------------------------------------|
|---------------------------------------------------------------------|

|------------------------------------15b17br15-13---|
|15-13-15-----13-17b18br17-15-13-15---------------15|
|---------------------------------------------------|
|---------------------------------------------------|
|----------9/10-------------------------------------|
|---------------------------------------------------|

then pick the d string while doing harmonics along the fretboard.


for this part i won't tab the scratching.

|---------|
|7-9b10-7-|
|7-9b10-7-|
|---------|
|---------|
|---------|

and thats it.and to put the solo in i will need help from the people 
who tabbed out the power or pro tabs.please send me them to pinkfloyd
fish@gmail.com.THIS IS A AWSOME SONG PLEASE SEND.


Добавлено: 07.03.2012
Другие материалы по этой песне:

Страница создана 05.03.2012
http://primanota.ru/joe-satriani/time-machine-chords.htm
Привет, Гость.
Предлагаем пройти революционный курс по гитаре.
Подарок от PrimaNota.Ru, забирай!