PrimaNota.ru - самый крупный в мире бесплатный архив песенных текстов, аккордов, табулатур и нот


Joe Satriani - War - аккорды и текст, таба, видео

Регистрация Запомнить меня
Войти через:  Facebook Google Twitter Vk Yandex Mail.ru

Joe Satriani - War - аккорды и текст, таба, видео

Печатать
Просмотров: 210
Авторы музыки: Joe Satriani

War
Joe Satriani
Intro : im not sure about the intro and Riff A
 
E-0--------0--0-0--0-0--0--0------0-0--0--0-----------0-------]
B-5h6p5h6--5--5----5----5--5h6p5--5----5--12h13p12h13-12h13p12]
G-------------------------------------------------------------]
D-------------------------------------------------------------]
A-------------------------------------------------------------]
E-------------------------------------------------------------]

E-----0-----------0------------0------------0-----------------]
B-h13-12h13p12h13-12h13p12h13--17h18p17h18--17h18p17h18-------]
G-------------------------------------------------------------]
D-------------------------------------------------------------]
A-------------------------------------------------------------]
E-------------------------------------------------------------]

Riff A x 3
E|-------------------------------------------------0---|------]
B|*------------------------------------------------0--*|------]
G|-------------------------------------------------2---|------]
D|------2------2------------------2------2-------------|------]
A|*---------------3p2p0--2-3----------------3p2p0-----*|------]
E|--0-0------0----------------0-0------0---------------|------]

End Of Riff A

E|---------------------------------------------------------]
B|---------------------------------------------------------]
G|---------------------------------------------------------]
D|------2------2--------------2-0--------------------------]
A|----------------3p2p0--2-3------2-0----------------------]
E|--0-0------0------------------------1--0-----------------]



w/wah
Main theme
E-----------------------------------]
B-10b(12)-(12)-(12)-10-12-12b(14)---]
G-----------------------------------]
D-----------------------------------]
A-----------------------------------]
E-----------------------------------]

E-------------------------------------------------------------]
B-rb12p10-12\5-5~~~~~~--10-10-12-13-13/15-13-12----12b(13)rb12]
G-----------------------------------------------14------------]
D-------------------------------------------------------------]
A-------------------------------------------------------------]
E-------------------------------------------------------------]

E----------------------14-15-17~~-15-12------14b(15)rb14------]
B-17b(19)-(19)-(19)-17------------------17~~-------------10/12]
G-------------------------------------------------------------]
D-------------------------------------------------------------]
A-------------------------------------------------------------]
E-------------------------------------------------------------]

E-----------------------------11---11-12-|-------------------x----]
B-12~~-17b(19)rb17-17~~~~--10---10-------|--------------------x---]
G----------------------------------------|-14b(16)-(16)-(16)---14-]
D----------------------------------------|------------------------]
A----------------------------------------|------------------------]
E----------------------------------------|------------------------]

E-------------------------------------------------------------]
B-12-12h13-12h13p12\10-12--12/17-17\12-12~~~~-12\10-10-12-13--]
G-------------------------------------------------------------]
D-------------------------------------------------------------]
A-------------------------------------------------------------]
E-------------------------------------------------------------]

E-------------------------------------------------------------]
B-13/15~~-13-12------12b(13)rb12------------------------------]
G---------------14~~------------------------------------------]
D--------------------------------14\12-12-12/14-b(15)rb14~~-x/]
A-----------------------------------------------------------x/]
E-----------------------------------------------------------x/]

E----------------------14-15-17~~~~-15-14------14b(15)rb14----]
B-17b(19)-(19)-(19)-17--------------------17~~----------------]
G-------------------------------------------------------------]
D-------------------------------------------------------------]
A-------------------------------------------------------------]
E-------------------------------------------------------------]

E----------------------------------11---11-12-----20b(22)rb20~~~~--]
B-----------17b(19)rb17-17~~~~--10---10----------------------------]
G-14/16-16---------------------------------------------------------]
D------------------------------------------------------------------]
A---------------------------------------------x\-------------------]
E---------------------------------------------x\-------------------]

E-22b(24)--22b(24)rb22p19--------------20b(22)rb20-20~~~~-----]
B-------------------------22b(24)~~~~-------------------------]
G-------------------------------------------------------------]
D-------------------------------------------------------------]
A-------------------------------------------------------------]
E-------------------------------------------------------------]

E-22b(24)\12h13p12----12-------------20b(22)rb20-20~~~~-------]
B------------------15----15b(17)~~~~--------------------------]
G-------------------------------------------------------------]
D-------------------------------------------------------------]
A-------------------------------------------------------------]
E-------------------------------------------------------------]

E-22b(24)rb22p19--------------20b(22)rb20~~~~-22b(24)-(24)(24)]
B----------------22b(24)~~~~----------------------------------]
G-------------------------------------------------------------]
D-------------------------------------------------------------]
A-------------------------------------------------------------]
E-------------------------------------------------------------]

E-(24)(24)(24)(24)(24)(24)(24)(24)(24)(24)(24)(24)(24)(24)(24)]
B-------------------------------------------------------------]
G-------------------------------------------------------------]
D-------------------------------------------------------------]
A-------------------------------------------------------------]
E-------------------------------------------------------------]

E-17-16-13------------------------|---------------------------]
B----------17-15-13-------15b(17)-|*--------------------------]
G-------------------16-14---------|---------------------------]
D---------------------------------|---------------------------]
A---------------------------------|*--8p6---------------------]
E---------------------------------|-------8-8-x-x-8-8-x-x-8---]

paly 4 times
E----------------------------------|--------------------------]
B---------------------------------*|-10b(11)rb10p8----8-10-11-]
G----------------------------------|---------------11---------]
D----------------------------------|--------------------------]
A-------------------------------8-*|--------------------------]
E-6--8--x-x-8-8-x-x-8---x-x-8---6--|--------------------------]

E-------------------------------------------------------------]
B-p10p8----8-10p8----8------------------------------8-10-8h10-]
G-------11--------10---11-10p8----8-10p8----8-10-11-----------]
D------------------------------10--------10-------------------]
A-------------------------------------------------------------]
E-------------------------------------------------------------]

E-------------------------------------------------------------]
B-p8----8-----------------------------------------------------]
G----11---11-10p8\7-10-8p7----7h8p7----7----------------------]
D--------------------------10-------10---10-0-7-7-(7)/--------]
A-------------------------------------------------------------]
E------------------------------------------------------13\----]

E-------------------------------------------------------------]
B-------------------------------------------------------------]
G----------------------------------------------------------8~~]
D------------------------------8----10----8~~~~-10-8-10-10----]
A-6-8---6-6-8p6-8-8p6---6-8/10---10----10---------------------]
E-----8---------------8---------------------------------------]

E-------------------------------------------------------------]
B-------------------------------------------------------------]
G-10-8--10-10b(12)rb10p8-10-10b(12)rb10p8-10-10b(12)rb10p8-10-]
D-------------------------------------------------------------]
A-------------------------------------------------------------]
E-------------------------------------------------------------]

E-----------------------------------|-----5h8p5---5-------5---]
B----------------11b(13)~~~~--------|---------------8p5----8p5]
G-10b(12)rb10p8---------------------|-----------7-------7-----]
D--------------------------------x/-|-------------------------]
A--------------------------------x/-|-6/7---------------------]
E----------------------------x\--x/-|-------------------------]

E---5--------5--------5h7p5---5-------------------------------]
B-----8p5------8p5----------8---8p5---5-------5-7-8p7p5---5h7-]
G-7--------7-------7----------------7---7p0-7-----------8-----]
D-------------------------------------------------------------]
A-------------------------------------------------------------]
E-------------------------------------------------------------]

E-------------------------------------------------------------]
B-h8p7p5---5h7p5h8p7p5-8p5h7h8p7p5---5h7h8p7p5-----------4h5h7]
G--------8-------------------------8-----------8-5\4h5h7------]
D-------------------------------------------------------------]
A-------------------------------------------------------------]
E-------------------------------------------------------------]

E-------------------------------------------------------------]
B-p5p4/5h7h8p7p5----------------------------------------------]
G----------------8p5\4h5h7p5p4h5h7/9p7p5\4h5h7p5p4/5h7h9p7p5\4]
D-------------------------------------------------------------]
A-------------------------------------------------------------]
E-------------------------------------------------------------]

E-------------------------------------------------------------]
B-------------------------------------------------------------]
G-h5h7p5p4/5h7h9p5\4-4h5h7p5p4/5h7h9p5-4h5h7p5p4--------------]
D------------------------------------------------7p4/7\2-4h5p4]
A-------------------------------------------------------------]
E-------------------------------------------------------------]

E-------------------------------------------------------------]
B-------------------------------------------------------------]
G-------------------------------------------------------------]
D-p2-----------------------------------------2-4-5-x/---------]
A----5-2h3h5p3p2/3h5h7p5p3\2-----2-5p3p2h3h5-------x/---------]
E----------------------------3-5-------------------x/---------]

tr tr tr tr tr tr
E-------------------------------T------T-------------12h15h17-]
B-----------T------T-----T---5-(8)-10-(13)-/13h15h17----------]
G----T---5-(7)--4-(7)-7-(9)-----------------------------------]
D-5-(7)-------------------------------------------------------]
A-------------------------------------------------------------]
E-------------------------------------------------------------]
tr
T T T +* + + + +
E---------15-(17)--15-(17)----17/--|-15-----------------------]
B-15b(17)--------------------------|-16-p13h16-16p13h16-16p13-]
G----------------------------------|--------------------------]
D----------------------------------|--------------------------]
A----------------------------------|--------------------------]
E----------------------------------|--------------------------]
*+ = for the next two bars, pull bar 2 steps up


+ + + + + + + + + + + + +
E-------------------------------------------------------------]
B-h16-16p13h16-16p13h16-16p13h16-16p13h16-16p13h16-16p13h16---]
G-------------------------------------------------------------]
D-------------------------------------------------------------]
A-------------------------------------------------------------]
E-------------------------------------------------------------]

.* . . . . . .
E-14p0-15h17p15p0-14p0-15p0-14-(14)p0-18p0--14p0-18p0-15b(18)-]
B-------------------------------------20---------20-----------]
G-------------------------------------------------------------]
D-------------------------------------------------------------]
A-------------------------------------------------------------]
E-------------------------------------------------------------]
*. = for the next two bars, pull bar 1 step up

E-------------------------------------------------------------]
B-8-8-8-8-8-8-8/10-10-10-10-10-10/13-13-13-13-16-16-16-16-16--]
G-9-9-9-9-9-9-9/11-11-11-11-11-11/14-14-14-14-16-16-16-16-16--]
D-------------------------------------------------------------]
A-------------------------------------------------------------]
E-------------------------------------------------------------]

E---------------------------14-14-14-14-14-15-15-15-15-15-0---]
B-16-16-16/17-17-17-17-17-0-16-16-16-16-16-17-17-17-17-17-0---]
G-16-16-16/17-17-17-17-17-0-----------------------------------]
D-------------------------------------------------------------]
A-------------------------------------------------------------]
E-------------------------------------------------------------]
-*- - - - - - - AH
E-20b(22)rb20-22b(24)~~~~-|-0--0-0----------------------------]
B-------------------------|-0--0-0----------------------------]
G-------------------------|-4--4-4--4h5h7p5p4h5-(5)p4\2h4--4--]
D-------------------------|-2--2-2----------------------------]
A-------------------------|-2---------------------------------]
E-------------------------|-0---------------------------------]
*- = depress bar before strinking note

E-------------------------------------------------------------]
B---Repeat main theme and riff A a few times...---------------]
G-------------------------------------------------------------]
D-------------------------------------------------------------]
A-------------------------------------------------------------]
E-------------------------------------------------------------]
Добавлено: 27.05.2014
Другие материалы по этой песне:

Страница создана 02.03.2012
http://primanota.ru/joe-satriani/war-chords.htm
Привет, Гость.
Предлагаем пройти революционный курс по гитаре.
Подарок от PrimaNota.Ru, забирай!