PrimaNota.ru - самый крупный в мире бесплатный архив песенных текстов, аккордов, табулатур и нот


Joe Satriani - New Day - таба, видео

Регистрация Запомнить меня
Войти через:  Facebook Google Twitter Vk Yandex Mail.ru

Joe Satriani - New Day - таба, видео

Печатать
Просмотров: 138
                        New Day by Joe Satriani

Tuning: Standard

Tabbed by marcus101

e-------7-6-4-2----------7-6-11-2---------10--9-7-5-----------14-12-11h12p11-|
B-----7-7-7-5-0------7-7-7-7--9-0------10-10-10-8-3--------14-12-10-10-------|
G---4-4------------4-4-4-------------7--7---------------11-11----------------|
D-4-2------------4-2---------------7-5---------------11--9-------------------|
A-2--------------2-----------------5------------------9----------------------|
E----------------------------------------------------------------------------|


-9-7----------7-6-4-2----------7-6-11-2---------10--9-7-5-----------14-12-16-|
-7-5--------7-7-7-5-0------7-7-7-7--9-0------10-10-10-8-3--------14-12-10-14-|
----------4-4------------4-4-4-------------7--7---------------11-11----------|
--------4-2------------4-2---------------7-5---------------11--9-------------|
--------2--------------2-----------------5------------------9----------------|
-----------------------------------------------------------------------------|


-19-|
-17-|
----|
----|
----|
----|


e------------------------8--7-----------------------------------------------|
B----8-12-10-8--------8-10-10---------------------13-15-20-17-15------------|
G--9-9-12-11-9------9-9----------7--9-14-14-12-14-14-16-17-16-14------------|
D-10------------10-10----------7-9-12-15-15-14-15-------------------------9-|
A---------------12-------------8------------------------------------7-9/10--|
E-------------------------------------------------------------------8-------|


--------------7--8--------3-3-5-10-10-14-12-------------------------10-12-15-|
-----------8-10-10------5-3-3-5-----------------------6-5-3----8-10----------|
---------9-9----------4-7-------11-11-14-12------------------7-9-10-10-12-15-|
7-5--10-10----------5-5---------------------9-------7-7-5-3--8---------------|
9-7--12-------------7-------------------------7---5--------------------------|
-----------------------------------------------------------------------------|


-----------18-17-15-13-------------------------------------------------------|
--------18-16-16-13-11-------------------------------------------------------|
-----15-15-------------------8-12-10--8------10-13-12------13-12-10-------15-|
--15-13------------------10-10-13-12-10----6-11-11-11----6-11-11-11-----8-13-|
--13---------------------11--------------8-8-----------8-8----------10-10----|
-----------------------------------------9-------------9------------11-------|


----------------------------------------------------------------------------|
----------------------------------------------------------------------------|
-13-13-12-----13-12-10-------15-13-13-12-----13-12-10-------15-13-13-12-----|
-13-13-13---6-11-11-11-----8-13-13-13-13---6-11-11-11-----8-13-13-13-13---6-|
----------8-8----------10-10-------------8-8----------10-10-------------8-8-|
----------9------------11----------------9------------11----------------9---|


-----------|
-----------|     Let the chord at the end ring.
13-12-10-8-|     After this it goes into the solo, if you want to learn that
11-11-11-8-|     aswell, it shouldn't be too hard for you to figure out as
---------6-|     it isn't very fast.
-----------|


The first part of the solo is played over these chords:

e---------|
B---0---0-|
G--1---3--|
D-2---4---|
A---------|
E---------|

The second part of the solo is just played over
the beginning part of the song.
I know this probably isn't exactly how joe plays the song but i think it's pretty close.
Enjoy!
Добавлено: 08.03.2012
Другие материалы по этой песне:

Страница создана 08.03.2012
http://primanota.ru/joe-satriani/new-day-chords.htm
Привет, Гость.
Предлагаем пройти революционный курс по гитаре.
Подарок от PrimaNota.Ru, забирай!