PrimaNota.ru - самый крупный в мире бесплатный архив песенных текстов, аккордов, табулатур и нот


Joe Satriani - Two Sides To Every Story - таба, видео

Регистрация Запомнить меня
Войти через:  Facebook Google Twitter Vk Yandex Mail.ru

Joe Satriani - Two Sides To Every Story - таба, видео

Печатать
Просмотров: 153


Intro
E|---------------------------------------|------------------------------|
B|---------------------------10-x-13-----|------------------------------|
G|-/9-12----------------7h9--x--x-x--5-5-|-/9-12---------5-2h5-2h3-2----|
D|------12p10-12-10-7-10-----------------|------12p10-12------------5---|
A|---------------------------------------|------------------------------|
E|---------------------------------------|------------------------------|

E|-------------------------------------|-----------------------------------|
B|---------------------------x-x-13-13-|--------------------------x-13-13--|
G|-/9-12-----------------7h9-x-x--x----|-/9-12--------------------x-x------|
D|------12p10-12-10-7-10-----x-x-------|------12p10-12-10-8h10-10~---------|
A|-------------------------------------|-----------------------------------|
E|-------------------------------------|-----------------------------------|


E|-------------------12--12--12--12----14--14--14--14--14--14--14--14---|
B|--13--13--13--13---15^-15^-15^-15^---17^-17^-17^-17^-17^-17^-17^-17^--|
G|--16^-16^-16^-16^-----------------------------------------------------|
D|----------------------------------------------------------------------|
A|----------------------------------------------------------------------|
E|----------------------------------------------------------------------|

E|------------------------------------------|------------------------------|
B|---------------------------10-x-13-13-13--|----------------------x-x-x-x-|
G|-/9-12----------------7h9--x--x-x--x--x---|-/9-12--------5-2h5-3-x-x-x-x-|
D|------12p10-12-10-7-10--------------------|------12p10-12----------------|
A|------------------------------------------|------------------------------|
E|------------------------------------------|------------------------------|

E|----------------------------------------------------------------------|
B|-8---8---8---8----11--11--11--11---13--13--13--13---16--16--16--16----|
G|-11^-11^-11^-11^--14^-14^-14^-14^--16^-16^-16^-16^--19^-19^-19^-19^---|
D|----------------------------------------------------------------------|
A|----------------------------------------------------------------------|
E|----------------------------------------------------------------------|

  1:45 (Don't sure about last notes here)
E|-------------------------------------------------------------------------|
B|-13^-13^--13-11----13-11--11^-13-11--11h13p11--11h13-11h13---------------|
G|---------------12~------12---------12--------12--------------------------|
D|----------------------------------------------------------11p10p8--------|
A|------------------------------------------------------------------10-13--|
E|-------------------------------------------------------------------------|

  1:50
E|------------------------------------------------------------------------|
B|------------------------------------------------------------------------|
G|-------8--8h10-8-10--8-10-12-10-8--10---8/12-8-------8-10-15-17p15-17---|
D|--8-10---------------------------10--10--------8h9h10-------------------|
A|------------------------------------------------------------------------|
E|------------------------------------------------------------------------|

  1:57
E|-----------------------------------------------------------------|
B|----16--20b-20b-20b-20----------11------------/16b17----13-16b---|
G|--17------------------17-17--/10--10----------------(15)---------|
D|-------------------------------------10p8--10--------------------|
A|-----------------------------------------10----------------------|
E|-----------------------------------------------------------------|

  2:06
E|-----------------------------15h-17b19r17-p15--------------|
B|-16-16-16-16--16-13--13b15r13----------------17p16-18-16---|
G|-------------------15--------------------------------------|
D|-----------------------------------------------------------|
A|-----------------------------------------------------------|
E|-----------------------------------------------------------|

  2:12
E|-----------------------------------------------|
B|-18p16---18p16-16p13---13----------------------|
G|-------17------------15--15p13-----------------|
D|------------------------------15-15p13---13-15-|
A|--------------------------------------15-------|
E|-----------------------------------------------|

  2:15
E|----------------------------------------------------------------------------------|
B|-16-13-13-16b--16b-16b-16-13-16-13--13--------------------------------------------|
G|----------------------------------15--15-12-15-12--12-15-12-----------------------|
D|-------------------------------------------------15--------15-10-15-13-8-10-13----|
A|----------------------------------------------------------------------------------|
E|----------------------------------------------------------------------------------|
                                                                         .  .

  2:21
E|-------------------------------------------------------------------------|
B|------------------------------------------------------------------18-16--|
G|--17-15-12--15h12---17-15-12--15h12--17-15-12--15--12-15-17--12-15-------|
D|-----------------15----------------15------------------------------------|
A|-------------------------------------------------------------------------|
E|-------------------------------------------------------------------------|

  2:26
E|-------------------------------------------------|
B|-------------------------------------------------|
G|--17-15-17-15-17-15--15----15--------------------|
D|-------------------17--17----15--10-8-8-5-10-----|
A|--------------------------------------------10---|
E|-------------------------------------------------|

  2:29
E|-----------------------------------------------------------------------------|
B|----------11-9--9-11-13b15-------------10-12-15-10-12-10---18-16-18-20-20-20-|
G|--10^-10^-----10-----------12p10--10-12--------------------------------------|
D|--10--10------------------------12-------------------------------------------|
A|-----------------------------------------------------------------------------|
E|-----------------------------------------------------------------------------|


  2:44                  Stoccato      w/bar
E|------------------------/---------|-------|
B|-10p8------------------8--x-x-x-x-|-------|
G|-----9-9h10p9-7-5--7/0----x-x-x-x-|-5-5---|
D|--------------------------x-x-x-x-|-5-5---|
A|----------------------------------|-------|
E|----------------------------------|-------|


E|---------------------------------------|------------------------------|
B|---------------------------10-x-13-----|------------------------------|
G|-/9-12----------------7h9--x--x-x--5-5-|-/9-12---------5-2h5-2h3-2--x-|
D|------12p10-12-10-7-10-----------------|------12p10-12------------5-x-|
A|---------------------------------------|------------------------------|
E|---------------------------------------|------------------------------|

E|-------------------------------------|-----------------------------------|
B|---------------------------x-x-13-13-|--------------------------x-13-13--|
G|-/9-12-----------------7h9-x-x--x----|-/9-12--------------------x-x------|
D|------12p10-12-10-7-10-----x-x-------|------12p10-12-10-8-10-10~---------|
A|-------------------------------------|-----------------------------------|
E|-------------------------------------|-----------------------------------|

 
E|---------------|\
B|-11^-10^--8^---| \
G|-14--13---10---| |(x3)
D|---------------| |
A|---------------| /
E|---------------|/
Добавлено: 27.04.2012
Другие материалы по этой песне:
  • Аккорды и текст

Страница создана 27.04.2012
http://primanota.ru/joe-satriani/two-sides-to-every-story-chords.htm
Привет, Гость.
Предлагаем пройти революционный курс по гитаре.
Подарок от PrimaNota.Ru, забирай!