PrimaNota.ru - самый крупный в мире бесплатный архив песенных текстов, аккордов, табулатур и нот


Joan Jett - I Wanna Be Your Dog - таба, видео

Регистрация Запомнить меня
Войти через:  Facebook Google Twitter Vk Yandex Mail.ru

Joan Jett - I Wanna Be Your Dog - таба, видео

Печатать
Просмотров: 267
Joan Jett and The Blackhearts: I Wanna Be Your Dog

standard

  Intro
E|---------------------------------------|
B|---------------------------------------|
G|---------------------------------------|
D|---------1-----1-1---3-1---------------|
A|-----1-4---4-1-----4-----4-1-----------|
E|-3-5-------------------------5p3-0-0---|

  Verse
E|---------------------------------------------------------------------|
B|---------------------------------------------------------------------|
G|---------------------------------------------------------------------|
D|--12-12-12-12-11-11-11-11--9-9-9-9-9-9-9-9---------------------------|
A|--10-10-10-10-9--9--9--9---7-7-7-7-7-7-7-7---------------------------|
E|--10-10-10-10-9—-9—-9--9---7-7-7-7-7-7-7-7---------------------------|

  Chorus
E|----------------------------------------------------------------------|
B|----------------------------------------------------------------------|
G|----------------------------------------------------------------------|
D|--12-12-12-12-11-11-11-11—11-11-11-11-9-9-9-9-------------------------|
A|--10-10-10-10-9--9--9--9--9—-9--9--9--7-7-7-7-------------------------|
E|--10-10-10-10-9—-9—-9--9—-9—-9—-9--9--7-7-7-7-------------------- x 3-|

E|---------------------------------------------------------------------|
B|---------------------------------------------------------------------|
G|---------------------------------------------------------------------|
D|--12-12-12---9-9-9-9-9-7-7-7-4-4-4-4---------------------------------|
A|--10-10-10---7-7-7-7-7-5-5-5-2-2-2-2---------------------------------|
E|--10-10-10---7-7-7-7-7-5-5-5-2-2-2-2---------------------------------|

E|---------------------------------------------------------------------|
B|---------------------------------------------------------------------|
G|---------------------------------------------------------------------|
D|--5---------9--------------------------------------------------------|
A|--3—x16-----7—x16----------------------------------------------------|
E|--3---------7--------------------------------------------------------|

  End Solo
E|----------------------------------------------------------------|
B|-----------------------------------------------------8b---------|
G|-------7-9-9b10-7---7----------------------------7-9----9-7-9---|
D|-9-7-9------------9--9-7h9p7h9p7h9p7h9p7-7--9-7-9---------------|
A|----------------------------------------------------------------|
E|----------------------------------------------------------------|

E|---------------|
B|---------------|
G|---------------|
D|-9p7h9p7-9-----|
A|-----------9-7-|
E|---------------|

Добавлено: 01.06.2012
Другие материалы по этой песне:
  • Аккорды и текст

Страница создана 01.06.2012
http://primanota.ru/joan-jett/i-wanna-be-your-dog-chords.htm
Привет, Гость.
Предлагаем пройти революционный курс по гитаре.
Подарок от PrimaNota.Ru, забирай!