PrimaNota.ru - самый крупный в мире бесплатный архив песенных текстов, аккордов, табулатур и нот


Joan Jett - Acdc - таба, видео

Регистрация Запомнить меня
Войти через:  Facebook Google Twitter Vk Yandex Mail.ru

Joan Jett - Acdc - таба, видео

Печатать
Просмотров: 349
/-slide up
\-slide down
*-palm mute
p-pull off

Main riff
e|------------------------------------------------------------------|
B|------------------------------------------------------------------|
G|------------------------------------------------------------------|
D|-7-7-9-7----7-7-7--7-9-7---7-7-7----------------------------------|
A|-5-5-5-5----5-5-5--5-5-5---5-5-5---7-7-9-7----7-7-7--7-9-7--7-7-7-|
E|-----------------------------------5-5-5-5----5-5-5--5-5-5--5-5-5-|

Chorus
e|-----------------------------------------------|
B|-----------------------------------------------|
G|-----------------------------------------------|
D|------------------2---5---7---9---5\4-2--------|
A|------------------2---5---7---9---5\4-2--------|
E|-pick scrape------0---3---5---7---3\2-0--------|

end of chorus
e|-----------------------|
B|-----------------------|
G|-----------------------|
D|--7---9---5\4-2--------|
A|--7---9---5\4-2--------|
E|--5---7---3\2-0--------|


Solo
e|------17-16-17-16-17-16-17-17p16---------------|
B|-3/17----------------------------17-17\3-------|
G|-----------------------------------------------|
D|-----------------------------------------------|
A|-----------------------------------------------|
E|-----------------------------------------------|

e|-------19b20r19-19-17-19-17-19-19p17-----------|
B|-3/17--------------------------------19--15-15-|
G|-----------------------------------------------|
D|-----------------------------------------------|
A|-----------------------------------------------|
E|-----------------------------------------------|

e|-------------------------------------------------|
B|-------------------------------------------------|
G|--------------------------12\10/12\10/12\10/12\9-|
D|--12\10/12\10/12\10/12\9-------------------------|
A|-------------------------------------------------|
E|-------------------------------------------------|


e|-----------------------------------------------|
B|-12/15-15-13/12-13-----------------------------|
G|-----------------------------------------------|
D|-----------------------------------------------|
A|-----------------------------------------------|
E|-----------------------------------------------|

little thing after solo
e|-----------------------------------------------|
B|-----------------------------------------------|
G|-4/5---7---9/10--------------------------------|
D|-4/5---7---9/10---2----------------------------|
A|-2/3---5---7/8----2----------------------------|
E|------------------0----------------------------|

Bridge
e|-----------------------------------------------|
B|-----------------------------------------------|
G|-----------------------------------------------|
D|-----------------224222422242224---------------|
A|-224222422242224-000000000000000---------------|
E|-000000000000000-------------------------------|
   *************** ***************
   Heavy palm mute

e|-----------------------------------------------|
B|-----------------------------------------------|
G|-----------------------------------------------|
D|-----------------777777777777777---------------|
A|-777777777777777-555555555555555---------------|
E|-555555555555555-------------------------------|
   *************** ***************
   Light palm mute


for correction email me at cwatts22@gmail.com
Добавлено: 18.03.2012
Другие материалы по этой песне:

Страница создана 18.03.2012
http://primanota.ru/joan-jett/acdc-chords.htm
Привет, Гость.
Предлагаем пройти революционный курс по гитаре.
Подарок от PrimaNota.Ru, забирай!