PrimaNota.ru - самый крупный в мире бесплатный архив песенных текстов, аккордов, табулатур и нот


Joan Jett - Roadrunner - бас-таба, видео

Регистрация Запомнить меня
Войти через:  Facebook Google Twitter Vk Yandex Mail.ru

Joan Jett - Roadrunner - бас-таба, видео

Печатать
Просмотров: 158
Уроки эстрадного вокала в Санкт-Петербурге
Joan Jett
Song: Roadrunner
Album: Fit to Be Tied

Intro
G|-------------|
D|-------------|
A|-------7-7---|
E|-------------|

Verse
G|-----------------|
D|-----------------|
A|-----------7-7---|
E |--7x12----------|

Pre-chorus

G|--------------------------------------|
D|--------------------------------------|
A|----7-7----7-7------------------------|
E |--------------------7x12-------------|

Chorus

G|-----------------|
D|-----------------|
A|--7-7------------|
E |-------7x12-----|

Break
G|-----------------------------------------------|
D|-----------------------------------------------|
A|---------------7----------7--------------------|
E |---7x8--5-5---5---4-4---4---------------------|

Back to Chorus

G|-----------------------------|
D|-----------------------------|
A|-----------------------------|
E |-------7( a whole bunch)----|


Ending
G|-----------------------|
D|-----------------------|
A|--7-7------------------|
E |-------7x3------------|        X3, then

G|-----------------|
D|-----------------|
A|--6-6-6----------|
E |---------7------|

Just listen to the song and it will all fit together.  Enjoy!
Добавлено: 06.05.2012
Другие материалы по этой песне:
  • Аккорды и текст

Страница создана 06.05.2012
http://primanota.ru/joan-jett/roadrunner-chords.htm
Привет, Гость.
Предлагаем пройти революционный курс по гитаре.
Подарок от PrimaNota.Ru, забирай!