PrimaNota.ru - самый крупный в мире бесплатный архив песенных текстов, аккордов, табулатур и нот


Jethro Tull - Skating Away on The Thin Ice of The New Day - текст песни, бас-таба, видео

Регистрация Запомнить меня
Войти через:  Facebook Google Twitter Vk Yandex Mail.ru

Jethro Tull - Skating Away on The Thin Ice of The New Day - текст песни, бас-таба, видео

Печатать
Просмотров: 154
Авторы музыки: Ian Anderson
Авторы текста: Ian Anderson
 4/4
 
|-----------------------------|-3-3---3---3-3-3-(3)-2-0---|
|-3-3---3-3---3-3-3-(3)-2-0---|-----3---3---------------2-|
|-----3-----3---------------3-|---------------------------|
|-----------------------------|---------------------------|
 

|-----------------------------|-5-5---5-5---5-5-5-(5)-2-0-2--|
|-3-3---3-3---3-3-3-(3)-2-0---|-----5-----5------------------|
|-----3-----3---------------3-|------------------------------|
|-----------------------------|------------------------------|
 

|-----------------------------|-3-3---3-------------------3-|
|-3-3---3-3---3-3-3-(3)-2-0---|-----3-----------0-1-(1)-3---|
|-----3-----3---------------3-|---------1-3-(3)-------------|
|-----------------------------|-----------------------------|
 

|-5-5---5------------------2-|---------------------------|
|-----5----2-2-3---------5---|-3---3-3---3-3-3-(3)-2-0---|
|----------------5-(5)-3-----|---3-----3---------------3-|
|----------------------------|---------------------------|
 

|---------------------------|-3-3-----------------------3-|
|-3-3---3---3-3-3-(3)-2-0---|-----3---1-0-(0)---------0---|
|-----3---3---------------3-|-------1---------1-3-(3)-----|
|---------------------------|-----------------------------|
 

|-1-1-0-(0)-------------------|---------------3-2-0-------3--|
|-----------3-1-1-1-0-(0)-----|-3-2-0-----0-3-------3-0-3----|
|-------------------------3-1-|-------3-1--------------------|
|-----------------------------|------------------------------|
 

|-5-3-2-----5-(5)----------|----------------|----------------|---------------|
|-------5---------5--------|-3--------------|-3--------------|-3-------------|
|---------3---------3-(3)--|---3-1----------|---3-1----------|---3-1---------|
|--------------------------|-------1-(1)----|-------1-(1)----|-------1-(1)---|
 

|-3-2-0------------|-------------------------|---------------------------|
|-------3-1-(1)----|---------------------0-1-|-3-3---3---3-3-3-(3)-2-0---|
|------------------|-1-1-1-1-1-1-1-1-1-3-----|-----3---3---------------3-|
|------------------|-------------------------|---------------------------|
 

|----------------|---------------||
|-3--------------|-3-------------||
|---3-1----------|---3-1---------||
|-------1-(1)----|-------1-(1)---||
 

 

     
Добавлено: 03.10.2013
Другие материалы по этой песне:
  • Аккорды и текст

Страница создана 16.07.2012
http://primanota.ru/jethro-tull/skating-away-on-the-thin-ice-of-the-new-day-chords.htm
Привет, Гость.
Предлагаем пройти революционный курс по гитаре.
Подарок от PrimaNota.Ru, забирай!