PrimaNota.ru - самый крупный в мире бесплатный архив песенных текстов, аккордов, табулатур и нот


Jethro Tull - Elegy - бас-таба, видео

Регистрация Запомнить меня
Войти через:  Facebook Google Twitter Vk Yandex Mail.ru

Jethro Tull - Elegy - бас-таба, видео

Печатать
Просмотров: 91
Авторы музыки: Dee Palmer

Jethro Tull
Elegy - Stormwatch (1979)                                         


G||-----------------|-----------------|-----------------|-----------------|
D||-----------------|-----------------|-----------------|-----------------|
A||-----------------|-----------------|-----------------|-----------------|
E||-----------------|-----------------|-----------------|-----------------|

-----------------|-----------------|-----------------|-----------------|
-----------------|-----------------|-----------------|-----------------|
-----------------|-----------------|-----------------|-----------------|
-----------------|-----------------|-----------------|-----------------|


       
--10-------9-----|--7---------------|-----------------|-----------------|
-----------------|------------10----|--8----------7---|------------10---|
-----------------|------------------|-----------------|--10-------------|
-----------------|------------------|-----------------|-----------------|

--10-------9-----|--7---------------|--7--------------|-----------------|
-----------------|------------10----|------------10---|--8---------10---|
-----------------|------------------|-----------------|-----------------|
-----------------|------------------|-----------------|-----------------|

-----------------|------------------|-----------------|-----------------|
-----------------|------------------|--------8----7---|--5--------------|
--8--------7-----|--5---------------|-----------------|--------8-----8--|
-----------------|--------------8---|--6--------------|-----------------|

-----7-----7--5--|------------------|-----------------|------------------|
---7-----7-------|--8----------7----|--5--------------|------------------|
-5---------------|------------------|------------8----|--6----------5----|
-----------------|------------------|-----------------|------------------|

 
------------------|------------------|-------------------|----------5-------|
--5---------------|------------------|--------8----7-----|------5-----------|
-----------8------|--6--------8------|-------------------|---------------3--|
------------------|------------------|--6-------------5--|--3---------------|


------------------|------------------|-------------------|------------------|
--3--------2------|------------------|-------------------|------------------|
------------------|--5---------3-----|--1----------------|------------3-----|
------------------|------------------|------------5------|--3---------------|

     
------------------|------------------|-------------------|------------------|
--3--------2------|------------------|-------------------|------------------|
------------------|--5---------3-----|--5---------3------|--1---------3-----|
------------------|------------------|-------------------|------------------|


------------------|------------------|---------3----2----|------------------|
--3-------3----2--|------------------|-------------------|--5-------3-------|
------------------|--5------5----3---|--1----------------|---------------6--|
------------------|------------------|-------------------|------------------|


----------7----5--|--4----5----------|-------------------|------------------|
------------------|------------4-----|--5-----5--3----3--|--1-----1---------|
--5---------------|------------------|-------------------|----------5----5--|
------------------|------------------|-------------------|------------------|


------------------|------------------|-------------------|
--5----5--3----3--|--1----1--3-------|-------------------|
------------------|------------------|--1-1-1-1-1-1-1-1--|
------------------|------------------|-------------------|


------------------|------------------|------------------|
--------7--7------|-----------5---3--|--2------3----3---|
------------------|------------------|------------------|
-5-5-5-5-----5-5--|--3-3-3-3---------|------------------|


------------------|------------------|------------------|-----------------|
--10--------------|--3--------2------|------------------|-----------------|
------------------|------------------|--5--------3------|--1--------------|
------------8-----|------------------|------------------|----------5------|


------------------|------------------|------------------|-----------------|
------------------|--3--------2------|------------------|-----------------|
------------3-----|------------------|--5--------3------|--5--------3-----|
--3---------------|------------------|------------------|-----------------|


-------------------||-------5----------5-----|-------3----------2-----|
-------------------||--3-------3--2-------2--|------------------------|
--1--------3-------||------------------------|--5-------5--3-------3--|
-------------------||------------------------|------------------------|


------------------------|------------------5----|-------5----------5-----|
-------3----------3-----|-------5---------------|--3-------3--2-------2--|
--1-------1-------------|-------------3---------|------------------------|
-------------5-------5--|--3-------3------------|------------------------|


-------3----------2-----|-------2----------2-----|-------3----------5--||
------------------------|------------------------|---------------------||
--5-------5--3-------3--|--5-------5--3-------3--|--1-------1--3-------||
------------------------|------------------------|---------------------||x2

Bass Cover:
http://www.youtube.com/watch?v=5LQbMV-OSAA
richard.mor12@gmail.com
Добавлено: 21.08.2015
Другие материалы по этой песне:

Страница создана 27.03.2012
http://primanota.ru/jethro-tull/elegy-chords.htm
Привет, Гость.
Предлагаем пройти революционный курс по гитаре.
Подарок от PrimaNota.Ru, забирай!