PrimaNota.ru - самый крупный в мире бесплатный архив песенных текстов, аккордов, табулатур и нот


Jethro Tull - Something's on The Move - текст песни, таба, бас-таба, видео

Регистрация Запомнить меня
Войти через:  Facebook Google Twitter Vk Yandex Mail.ru

Jethro Tull - Something's on The Move - текст песни, таба, бас-таба, видео

Печатать
Просмотров: 94
Уроки эстрадного вокала в Санкт-Петербурге
Авторы музыки: Ian Anderson

-------------------------------------------------------------------------------
                             SOMETHING'S ON THE MOVE - Jethro Tull
-------------------------------------------------------------------------------


Tabbed by: Isaias Garcia (TexasFury)

Tuning: Standard
     
     
     Driving rock - 123 bpm

     Intro
                                          PM PM        
     E.  S E  E  Q     E  S S    E.  S E  E  E  E  S E.   
E||---------------------------|--------------------------|
B||---------------------------|--------------------------|
G||---------------------------|--------------------------|
D||---------------------------|-----------7--------------|
A||-----------5--L~-----------|-----------------7--7-5---|
E||--7---7-7--------------0-5-|--7---7-7-----0-----------|


                                          PM PM        
  E.  S E  E  Q     E  S S    E.  S E  E  E  E  S E.   
---------------------------|--------------------------|
---------------------------|--------------------------|
---------------------------|--------------------------|
---------------------------|-----------7--------------|
-----------5--L~-----------|-----------------7--7-5---|
--7---7-7-----------7--0-5-|--7---7-7-----0-----------|


  PM  PM PM             PM PM    PM  PM PM    PM PM        
  E.  S  E  E  Q     E  S  S     E.  S  E  E  E  E  S E.   
------------------------------|---------------------------|
------------------------------|---------------------------|
------------------------------|---------------------------|
------------------------------|------------7--------------|
------------5--L~-------------|------------------7--7-5---|
--7---7--7--------------0--5--|--7---7--7-----0-----------|


  PM  PM PM             PM PM    PM  PM PM    PM PM        
  E.  S  E  E  Q     E  S  S     E.  S  E  E  E  E  S E.   
------------------------------|---------------------------||
------------------------------|---------------------------||
------------------------------|---------------------------||
------------------------------|------------7--------------||
------------5--L~-------------|------------------7--7-5---||
--7---7--7--------------0--5--|--7---7--7-----0-----------||


  Verse 1a                                                       
  PM  PM PM             PM PM    PM  PM PM    PM PM        
  E.  S  E  E  Q     E  S  S     E.  S  E  E  E  E  S E.   
------------------------------|---------------------------|
------------------------------|---------------------------|
------------------------------|---------------------------|
------------------------------|------------5--------------|
------------3--L~-------------|------------------5--5-3---|
--5---5--5--------------0--3--|--5---5--5-----3-----------|


  PM  PM PM                                      PM PM  
  E.  S  E  E   Q    Q       E  E  Q    E  E  E  S  S   
--------------------------|----------------------------|
--------------------------|-------------8--8-----------|
--------------------------|--5--5-------7--7-----------|
--------------------------|--5--5-------5--5-----------|
------------3~--L---------|--3--3----------------------|
--5---5--5----------------|----------------------0--3--|


  PM  PM PM             PM PM    PM  PM PM    PM PM        
  E.  S  E  E  Q     E  S  S     E.  S  E  E  E  E  S E.   
------------------------------|---------------------------|
------------------------------|---------------------------|
------------------------------|---------------------------|
------------------------------|------------5--------------|
------------3--L~-------------|------------------5--5-3---|
--5---5--5--------------0--3--|--5---5--5-----3-----------|


  PM  PM PM                                                             
  E.  S  E   E  Q    Q       E.  S S S E  Q    Q       S S S S S S E    
--------------------------|-------------------------|------------------|
--------------------------|-------------------------|------------------|
------------10--L---------|--5---7-L-x-9--L---------|--5-4---4---------|
------------10--L---------|--5---7-L-x-9--L---------|------7---7-5-7~--|
-------------8--L---------|--3---5-L-x-7--L---------|------------------|
--5---5--5----------------|-------------------------|------------------|


                         PM PM    PM  PM PM    PM            
  Q.      E   E   E   E  S  S     E.  S  E  E  E  E  S E.    
-------------------------------|----------------------------||
-------------------------------|----------------------------||
----------5~--L~--5\-----------|------------------7--7-5~---||
--L~---------------------------|------------5---------------||
-------------------------------|----------------------------||
-------------------------0--3--|--5---5--5-----3------------||


  Verse 1b                                                        
  PM  PM PM             PM PM    PM  PM PM    PM PM PM      
  E.  S  E  E  Q     E  S  S     E.  S  E  E  E  E  S  E.   
------------------------------|----------------------------|
------------------------------|----------------------------|
------------------------------|----------------------------|
------------------------------|------------5---------------|
------------3--L~-------------|------------------5--5--3---|
--5---5--5--------------0--3--|--5---5--5-----3------------|


  PM  PM PM                                      PM PM  
  E.  S  E  E   Q    Q       E  E  Q    E  E  E  S  S   
--------------------------|----------------------------|
--------------------------|-------------8--8-----------|
--------------------------|--5--5-------7--7-----------|
--------------------------|--5--5-------5--5-----------|
------------3~--L---------|--3--3----------------------|
--5---5--5----------------|----------------------0--3--|


  PM  PM PM             PM PM    PM  PM PM    PM PM PM      
  E.  S  E  E  Q     E  S  S     E.  S  E  E  E  E  S  E.   
------------------------------|----------------------------|
------------------------------|----------------------------|
------------------------------|----------------------------|
------------------------------|------------5---------------|
------------3--L~-------------|------------------5--5--3---|
--5---5--5--------------0--3--|--5---5--5-----3------------|


  PM  PM PM                                                            
  E.  S  E  E  Q    Q       E.  S S S E  Q    Q       S S S S S S E    
-------------------------|-------------------------|------------------|
------------6--L---------|-------------------------|------------------|
------------5--L---------|--5---7-L-x-9--L---------|--5-4---4---------|
------------3--L---------|--5---7-L-x-9--L---------|------7---7-5-7~--|
-------------------------|--3---5-L-x-7--L---------|------------------|
--5---5--5---------------|-------------------------|------------------|


                     PM PM    PM  PM PM    PM            
  Q.     E   Q    E  S  S     E.  S  E  E  E  E  S E.    
---------------------------|----------------------------||
---------------------------|----------------------------||
---------5~--L-------------|------------------7--7-5~---||
--L------------------------|------------5---------------||
---------------------------|----------------------------||
---------------------0--3--|--5---5--5-----3------------||


  Chorus 1                                                                         
                          PM PM           PM PM PM                           
  Q    Q     Q    Q       E  E  E  E   E  E  S  E.     Q    Q     Q    Q     
-----------------------|----------------------------|-----------------------|
--8---------10---------|----------------------------|--8---------10---------|
--7----------9---------|----------------------------|--7----------9---------|
--5----------7---------|----------------------------|--5----------7---------|
-----------------------|-----------5~--L------------|-----------------------|
-----------------------|--7--7------------7--7--5---|-----------------------|


  PM PM           PM   PM                                                  
  E  E  E  E   E  E  S E.     Q    Q     Q    Q       Q    Q    Q.     E   
---------------------------|-----------------------|----------------------|
---------------------------|--8---------10---------|----------------------|
---------------------------|--7----------9---------|--7---------9---------|
---------------------------|--5----------7---------|--7---------9---------|
-----------5~--L-----------|-----------------------|--5---------7---------|
--7--7------------7--7-5---|-----------------------|----------------------|


  E  E  E  E  E  E  E  E     E.  S E  Q.      E   S S  
--------------------------|---------------------------|
-----------7--------------|---------------------------|
-----7--9-----9--6--------|-----------7~------L\------|
--9-----------------9--7--|--9---9-9------------------|
--------------------------|---------------------------|
--------------------------|-----------------------0-5-|


  E.  S E  E  E  E  S E.      Q     E  E   Q.     S S  
---------------------------|--------------------------|
---------------------------|--------------------------|
-----------------9--9-7~---|--L\----------------------|
-----------7--L------------|--------------------------|
---------------------------|-----------5~--L----------|
--7---7-7------------------|----------------------0-5-|


                              Verse 2                           
              PM PM           PM  PM PM             PM PM  
  E.  S E  E  E  E  S E.      E.  S  E  E  Q     E  S  S   
--------------------------||------------------------------|
--------------------------||------------------------------|
--------------------------||------------------------------|
-----------7--------------||------------------------------|
-----------------7--7-5---||------------3--L~-------------|
--7---7-7-----0-----------||--5---5--5--------------0--3--|


  PM  PM PM    PM PM          PM  PM PM                
  E.  S  E  E  E  E  S E.     E.  S  E  E   Q    Q     
---------------------------|--------------------------|
---------------------------|--------------------------|
---------------------------|--------------------------|
------------5--------------|--------------------------|
------------------5--5-3---|------------3~--L---------|
--5---5--5-----3-----------|--5---5--5----------------|


                      PM PM    PM  PM PM             PM PM  
  E  E  Q    E  E  E  S  S     E.  S  E  E  Q     E  S  S   
----------------------------|------------------------------|
-------------8--8-----------|------------------------------|
--5--5-------7--7-----------|------------------------------|
--5--5-------5--5-----------|------------------------------|
--3--3----------------------|------------3--L~-------------|
----------------------0--3--|--5---5--5--------------0--3--|


  PM  PM PM    PM PM          PM  PM PM                
  E.  S  E  E  E  E  S E.     E.  S  E   E  Q    Q     
---------------------------|--------------------------|
---------------------------|--------------------------|
---------------------------|------------10--L---------|
------------5--------------|------------10--L---------|
------------------5--5-3---|-------------8--L---------|
--5---5--5-----3-----------|--5---5--5----------------|


                                                                  PM PM  
  E.  S S S E  Q    Q       S S S S S S E      Q.     E   Q    E  S  S   
-------------------------|------------------|---------------------------|
-------------------------|------------------|---------------------------|
--5---7-L-x-9--L---------|--5-4---4---------|---------5~--L-------------|
--5---7-L-x-9--L---------|------7---7-5-7~--|--L------------------------|
--3---5-L-x-7--L---------|------------------|---------------------------|
-------------------------|------------------|---------------------0--3--|


                                Chorus 2                    
  PM  PM PM    PM                                    
  E.  S  E  E  E  E  S E.       Q    Q     Q    Q     
----------------------------||-----------------------|
----------------------------||--8---------10---------|
------------------7--7-5~---||--7----------9---------|
------------5---------------||--5----------7---------|
----------------------------||-----------------------|
--5---5--5-----3------------||-----------------------|


  PM PM           PM PM PM                           
  E  E  E  E   E  E  S  E.     Q    Q     Q    Q     
----------------------------|-----------------------|
----------------------------|--8---------10---------|
----------------------------|--7----------9---------|
----------------------------|--5----------7---------|
-----------5~--L------------|-----------------------|
--7--7------------7--7--5---|-----------------------|


  PM PM           PM PM PM                                                  
  E  E  E  E   E  E  S  E.     Q    Q     Q    Q       Q    Q    Q.     E   
----------------------------|-----------------------|----------------------|
----------------------------|--8---------10---------|----------------------|
----------------------------|--7----------9---------|--7---------9---------|
----------------------------|--5----------7---------|--7---------9---------|
-----------5~--L------------|-----------------------|--5---------7---------|
--7--7------------7--7--5---|-----------------------|----------------------|


  E  E  E  E  E  E  E  E     E.  S E  Q.      E  S S  
--------------------------|--------------------------|
-----------7--------------|--------------------------|
-----7--9-----9--6--------|-----------7~-------------|
--9-----------------9--7--|--9---9-9-----------------|
--------------------------|--------------------------|
--------------------------|-------------------7--0-5-|


                                                  PM PM  
  E.  S E  E  E  E  S E.      Q     E  E   Q.     S  S   
---------------------------|----------------------------|
---------------------------|----------------------------|
-----------------9--9-7~---|--L\------------------------|
-----------7--L------------|----------------------------|
---------------------------|-----------5~--L------------|
--7---7-7------------------|----------------------0--5--|


                              Flute Solo                         
              PM PM                                    
  E.  S E  E  E  E  S E.      E.  S E  E   Q    E  S S  
--------------------------||---------------------------|
--------------------------||---------------------------|
--------------------------||---------------------------|
-----------7--------------||-----------5~--L-----------|
-----------------7--7-5---||--7---7-7--------------0-5-|
--7---7-7-----0-----------||---------------------------|


              PM PM                                    
  E.  S E  E  E  E  S E.     E.  S E  E   Q    E  S S  
--------------------------|---------------------------|
--------------------------|---------------------------|
-----------7--------------|---------------------------|
--------------7--7--7-5---|-----------5~--L-----------|
--7---7-7-----------------|--7---7-7--------------0-5-|
--------------------------|---------------------------|


  E.  S E  E  E   E   S  E.      E.  S E  E   Q    E  S S  
------------------------------|---------------------------|
------------------------------|---------------------------|
-----------7-----16--16-14\---|---------------------------|
--------------7---------------|-----------5~--L-----------|
--7---7-7---------------------|--7---7-7--------------0-5-|
------------------------------|---------------------------|


              PM PM                                    
  E.  S E  E  E  E  S E.     E.  S E  E   Q    E  S S  
--------------------------|---------------------------|
--------------------------|---------------------------|
-----------7--------------|---------------------------|
--------------7--7--7-5---|-----------5~--L-----------|
--7---7-7-----------------|--7---7-7--------------0-5-|
--------------------------|---------------------------|


              PM PM                                    
  E.  S E  E  E  E  S E.     E.  S E  E  Q     E  S S  
--------------------------|---------------------------|
--------------------------|---------------------------|
-----------7--------------|---------------------------|
--------------7--7--7-5---|---------------------------|
--7---7-7-----------------|-----------5--L~-----------|
--------------------------|--7---7-7--------------0-5-|


              PM PM                                    
  E.  S E  E  E  E  S E.     E.  S E  E  Q     E  S S  
--------------------------|---------------------------|
--------------------------|---------------------------|
--------------------------|---------------------------|
-----------7--------------|---------------------------|
-----------------7--7-5---|-----------5--L~-----------|
--7---7-7-----0-----------|--7---7-7--------------0-5-|


              PM PM                                    
  E.  S E  E  E  E  S E.     E.  S E  E  Q     E  S S  
--------------------------|---------------------------|
--------------------------|---------------------------|
--------------------------|---------------------------|
-----------7--------------|---------------------------|
-----------------7--7-5---|-----------5--L~-----------|
--7---7-7-----0-----------|--7---7-7--------------0-5-|


              PM PM                                    
  E.  S E  E  E  E  S E.     E.  S E  E  Q     E  S S  
--------------------------|---------------------------|
--------------------------|---------------------------|
--------------------------|---------------------------|
-----------7--------------|---------------------------|
-----------------7--7-5---|-----------5--L~-----------|
--7---7-7-----0-----------|--7---7-7--------------0-5-|


                              Verse 3                           
              PM PM           PM  PM PM             PM PM  
  E.  S E  E  E  E  S E.      E.  S  E  E  Q     E  S  S   
--------------------------||------------------------------|
--------------------------||------------------------------|
--------------------------||------------------------------|
-----------7--------------||------------------------------|
-----------------7--7-5---||------------3--L~-------------|
--7---7-7-----0-----------||--5---5--5--------------0--3--|


  PM  PM PM    PM PM          PM  PM PM                
  E.  S  E  E  E  E  S E.     E.  S  E  E   Q    Q     
---------------------------|--------------------------|
---------------------------|--------------------------|
---------------------------|--------------------------|
------------5--------------|--------------------------|
------------------5--5-3---|------------3~--L---------|
--5---5--5-----3-----------|--5---5--5----------------|


                      PM PM    PM  PM PM             PM PM  
  E  E  Q    E  E  E  S  S     E.  S  E  E  Q     E  S  S   
----------------------------|------------------------------|
-------------8--8-----------|------------------------------|
--5--5-------7--7-----------|------------------------------|
--5--5-------5--5-----------|------------------------------|
--3--3----------------------|------------3--L~-------------|
----------------------0--3--|--5---5--5--------------0--3--|


  PM  PM PM    PM PM          PM  PM PM                
  E.  S  E  E  E  E  S E.     E.  S  E   E  Q    Q     
---------------------------|--------------------------|
---------------------------|--------------------------|
---------------------------|------------10--L---------|
------------5--------------|------------10--L---------|
------------------5--5-3---|-------------8--L---------|
--5---5--5-----3-----------|--5---5--5----------------|


                                                                      PM PM  
  E.  S S S E  Q    Q       S S S S S S E      Q.      E   E   E   E  S  S   
-------------------------|------------------|-------------------------------|
-------------------------|------------------|-------------------------------|
--5---7-L-x-9--L---------|--5-4---4---------|----------5~--L~--5\-----------|
--5---7-L-x-9--L---------|------7---7-5-7~--|--L~---------------------------|
--3---5-L-x-7--L---------|------------------|-------------------------------|
-------------------------|------------------|-------------------------0--3--|


                                Chorus 3                    
  PM  PM PM    PM                                    
  E.  S  E  E  E  E  S E.       Q    Q     Q    Q     
----------------------------||-----------------------|
----------------------------||--8---------10---------|
------------------7--7-5~---||--7----------9---------|
------------5---------------||--5----------7---------|
----------------------------||-----------------------|
--5---5--5-----3------------||-----------------------|


  PM PM           PM PM PM                           
  E  E  E  E   E  E  S  E.     Q    Q     Q    Q     
----------------------------|-----------------------|
----------------------------|--8---------10---------|
----------------------------|--7----------9---------|
----------------------------|--5----------7---------|
-----------5~--L------------|-----------------------|
--7--7------------7--7--5---|-----------------------|


  PM PM           PM PM PM                                                  
  E  E  E  E   E  E  S  E.     Q    Q     Q    Q       Q    Q    Q.     E   
----------------------------|-----------------------|----------------------|
----------------------------|--8---------10---------|----------------------|
----------------------------|--7----------9---------|--7---------9---------|
----------------------------|--5----------7---------|--7---------9---------|
-----------5~--L------------|-----------------------|--5---------7---------|
--7--7------------7--7--5---|-----------------------|----------------------|


  E  E  E  E  E  E  E  E      E.   S  E   Q.      E   S  S  
--------------------------|--------------------------------|
-----------7--------------|--------------------------------|
-----7--9-----9--6--------|--------------11~---------------|
--9-----------------9--7--|--12---12-12--------------------|
--------------------------|--------------------------12-14-|
--------------------------|--------------------------------|


   E.   S  E   E  E   E   S  E.      E.  S E  E  Q     E  S S  
----------------------------------|---------------------------|
----------------------------------|---------------------------|
--------------11--L--12--12-11~---|---------------------------|
--12---12-12----------------------|---------------------------|
----------------------------------|-----------5--L~-----------|
----------------------------------|--7---7-7--------------0-5-|


                              Verse 4                           
              PM PM           PM  PM PM             PM PM  
  E.  S E  E  E  E  S E.      E.  S  E  E  Q     E  S  S   
--------------------------||------------------------------|
--------------------------||------------------------------|
--------------------------||------------------------------|
-----------7--------------||------------------------------|
-----------------7--7-5---||------------3--L~-------------|
--7---7-7-----0-----------||--5---5--5--------------0--3--|


  PM  PM PM    PM PM          PM  PM PM                
  E.  S  E  E  E  E  S E.     E.  S  E  E   Q    Q     
---------------------------|--------------------------|
---------------------------|--------------------------|
---------------------------|--------------------------|
------------5--------------|--------------------------|
------------------5--5-3---|------------3~--L---------|
--5---5--5-----3-----------|--5---5--5----------------|


                      PM PM    PM  PM PM             PM PM  
  E  E  Q    E  E  E  S  S     E.  S  E  E  Q     E  S  S   
----------------------------|------------------------------|
-------------8--8-----------|------------------------------|
--5--5-------7--7-----------|------------------------------|
--5--5-------5--5-----------|------------------------------|
--3--3----------------------|------------3--L~-------------|
----------------------0--3--|--5---5--5--------------0--3--|


  PM  PM PM    PM PM          PM  PM PM                
  E.  S  E  E  E  E  S E.     E.  S  E   E  Q    Q     
---------------------------|--------------------------|
---------------------------|--------------------------|
---------------------------|------------10--L---------|
------------5--------------|------------10--L---------|
------------------5--5-3---|-------------8--L---------|
--5---5--5-----3-----------|--5---5--5----------------|


                                                                         PM PM  
  E  S S S S E  Q    Q       S  S S S S  S E      Q.      E   E   E   E  S  S   
--------------------------|--------------------|-------------------------------|
--------------------------|--------------------|-------------------------------|
--5--x-7---x-9--L---------|--5p-4---4----------|----------5~--L~--5\-----------|
--5--x-7---x-9--L---------|-------7---7p-5-7~--|--L~---------------------------|
--3--x-5---x-7--L---------|--------------------|-------------------------------|
--------------------------|--------------------|-------------------------0--3--|


                                Chorus 4                    
  PM  PM PM    PM PM                                 
  E.  S  E  E  E  E  S E.       Q    Q     Q    Q     
----------------------------||-----------------------|
----------------------------||--8---------10---------|
------------------7--7-5~---||--7----------9---------|
------------5---------------||--5----------7---------|
----------------------------||-----------------------|
--5---5--5-----3------------||-----------------------|


  PM PM           PM PM PM                           
  E  E  E  E   E  E  S  E.     Q    Q     Q    Q     
----------------------------|-----------------------|
----------------------------|--8---------10---------|
----------------------------|--7----------9---------|
----------------------------|--5----------7---------|
-----------5~--L------------|-----------------------|
--7--7------------7--7--5---|-----------------------|


  PM PM           PM PM PM                                                  
  E  E  E  E   E  E  S  E.     Q    Q     Q    Q       Q    Q    Q.     E   
----------------------------|-----------------------|----------------------|
----------------------------|--8---------10---------|----------------------|
----------------------------|--7----------9---------|--7---------9---------|
----------------------------|--5----------7---------|--7---------9---------|
-----------5~--L------------|-----------------------|--5---------7---------|
--7--7------------7--7--5---|-----------------------|----------------------|


  E  E  Q    E   E  S   S  S  S     W                    W                 
--------------------------------|--------------------|--------------------|
--8--8--------------------------|--------------------|--------------------|
--7--7-------9------------------|--------------------|--12----------------|
--5--5----------11--9h-11p-9----|--12----------------|--------------------|
-----------------------------12-|--------------------|--------------------|
--------------------------------|--------------------|--------------------|


                                        Out-solo                       
                                                         PM    
   W                   H                H         E.   S  Q     
--------------------|-----------||-----------------------------|
--------------------|-----------||-----------------------------|
--11----------------|--L--------||--14g16~--------L---14-------|
--------------------|-----------||-----------------------16----|
--------------------|-----------||-----------------------------|
--------------------|-----------||-----------------------------|


  E   E   E.   S  E    E    E     E     
---------------------------------------|
-----17b--Lb---Lb-Lb--17b--17pb--17pb--|
---------------------------------------|
---------------------------------------|
---------------------------------------|
---------------------------------------|


   E     E     E     E      S   E.  Q         S   E.   S   E.   S   E.  Q      
------------------------------------------|-----------------------------------|
--17pb--17pb--17pb--17pbr--15h-17---L~----|--14h-15---12h-14---10h-12---L~----|
------------------------------------------|-----------------------------------|
------------------------------------------|-----------------------------------|
------------------------------------------|-----------------------------------|
------------------------------------------|-----------------------------------|


  H        Q     S   E.       S   E.    S   E.    S   E.   S   S  S  S  
--------------------------|--------------------------------------------|
--L-------------10h-12~---|--10h-12~---10h-12~---10h-12~---------10----|
--------------------------|--------------------------------9h-11----11-|
--------------------------|--------------------------------------------|
--------------------------|--------------------------------------------|
--------------------------|--------------------------------------------|


                                                      >                    
  S   S  S  S  S   E.   E  E   Q       E   S  S  S S  E   Q    S  S  S  S  
------------------------------------|-------------------------------------|
--------10----10h-12~---L--L\-------|--------------------------7----------|
--9h-11----11-----------------------|--9b--Lb-Lb-L-Lb-9~--L------10p-9p-7-|
------------------------------------|-------------------------------------|
------------------------------------|-------------------------------------|
------------------------------------|-------------------------------------|


                                       |--3--|                  
  Q.      E   E  E   S S S S    S S E  E  E  E  S S S S S S E   
-----------------------------|---------------------------------|
-----------------7--10-7-----|---------------------------------|
--9~------9b--L----------9-7-|--9-7-7--7-----------------------|
-----------------------------|------------9--7----7---7---7----|
-----------------------------|------------------9---9---9---9--|
-----------------------------|---------------------------------|


  Q.      Q.      Q        Q     E.  S S  S S S S  S S S  
------------------------|--------------------------------|
------------------------|--------------------------------|
------------------------|--------------------------------|
--9~------L\------9~----|--9~----9---7-9p-7---7-9p-7---7-|
------------------------|-------------------9--------9---|
------------------------|--------------------------------|


  S  S S S S  S S S S  S S S E  E     E  E  S  S S S S  S  S S S  S  S S  
-----------------------------------|-------------------------------------|
-----------------------------------|-------------------------------------|
--------------------------------6--|--7--9--6h-7-6-----------------------|
--9p-7---7-9p-7---7-9p-7---7-9-----|---------------9-7h-9p-7---7h-9p-7---|
-------9--------9--------9---------|-------------------------9---------9-|
-----------------------------------|-------------------------------------|


  H.            Q        E  E   S E.   H           
----------------------|-----------7---------------|
----------------------|---------7-----10b~--------|
----------------------|-----9b--------------------|
----------------------|---------------------------|
--9~------------L/----|---------------------------|
----------------------|---------------------------|


                           |---3--|                                          
  H        S  S S   S S  S S   S  S    S  S S S  S  S  E   S   E.   Q        
-----------7----------7----7h-10p-7-|-------7---10p-7-----10b--Lb---Lpb----||
--L----------10-7h-10---10----------|-----7---7----------------------------||
------------------------------------|--9b-------------10-------------------||
------------------------------------|--------------------------------------||
------------------------------------|--------------------------------------||
------------------------------------|--------------------------------------||


Duration Legend
---------------
W - whole
H - half
Q - quarter
E - 8th
S - 16th
. - note dotted
|-n-|  - n-tuplets

Tablature Legend
----------------
L - tied note
x - dead note
g - grace note
h - hammer on
p - pull off
b - bend
S - shift slide
s - legato slide
/ -  slide into from below or out of upwards
\ -  slide into from above or out of downwards
~ - vibrato
W - wide vibrato
tr - trill

Check my other tabs for Guitar Pro, Powertab, chords, guitar/bass text at
http://profile.ultimate-guitar.com/TexasFury/contributions/
Добавлено: 29.11.2015
Другие материалы по этой песне:

Страница создана 04.07.2012
http://primanota.ru/jethro-tull/somethings-on-the-move-chords.htm
Привет, Гость.
Предлагаем пройти революционный курс по гитаре.
Подарок от PrimaNota.Ru, забирай!