PrimaNota.ru - самый крупный в мире бесплатный архив песенных текстов, аккордов, табулатур и нот


Jesper Kyd - Sanctuary - таба, видео

Регистрация Запомнить меня
Войти через:  Facebook Google Twitter Vk Yandex Mail.ru

Jesper Kyd - Sanctuary - таба, видео

Печатать
Просмотров: 243
Artist: Jesper Kyd
Album: Assassin's Creed 2
Song: Sanctuary

Tabbed By A Dead Fly

The song has been consolidated for two guitars,
one stardard tuning guitar (guitar 1), 
and the other a Drop D guitar (guitar 2)

Opening (guitar 2) 0:00 - 0:15

e|----------------|----------------|
B|----------------|----------------|  Play this four times
G|----------------|----------------|
D|----------7-----|----------------|
A|-----5----8-----|----------------|
D|-0--------------|---------7------|

Enter in guitar one 

(guitar 1) 0:16 - 0:57

e|---------17-----|----------------|-15--17---------|----------------|
B|-17--18---------|----------------|---------17-----|----------------|
G|----------------|----------------|----------------|----------------|
D|----------------|----------------|----------------|----------------|
A|----------------|----------------|----------------|----------------|
E|----------------|----------------|----------------|----------------|

e|-----13--12-----|----------------|-10-------------|----------------|
B|-15-------------|-------------10-|----------------|----------------|
G|----------------|----------------|--------10------|----------------|
D|----------------|----------------|----------------|----------------|
A|----------------|----------------|----------------|----------------|
E|----------------|----------------|----------------|----------------|

e|-----15--17-----|----------------|-15--17---------|----------------|
B|-17-------------|----------------|---------17-----|----------------|
G|----------------|----------------|----------------|----------------|
D|----------------|----------------|----------------|----------------|
A|----------------|----------------|----------------|----------------|
E|----------------|----------------|----------------|----------------|

e|-10--12--13-----|----------------|----------------|----------------|
B|----------------|----------------|----------------|----------------|
G|----------------|----------------|-10-------------|----------------|
D|----------------|----------------|----------------|----------------|
A|----------------|----------------|----------------|----------------|
E|----------------|----------------|----------------|----------------|

e|-----19--19-----|-19-----20------|-19--20--22--20-|-19--17--15--17-|
B|-17-------------|----------------|----------------|----------------|
G|----------------|----------------|----------------|----------------|
D|----------------|----------------|----------------|----------------|
A|----------------|----------------|----------------|----------------|
E|----------------|----------------|----------------|----------------|

e|----------------|---------15--17-|----------------|----------------|
B|-17-------------|----------------|-17-------------|----------------|
G|----------------|----------------|----------------|----------------|
D|----------------|----------------|----------------|----------------|
A|----------------|----------------|----------------|----------------|
E|----------------|----------------|----------------|----------------|

(guitar 2) 0:16 - 1:16

e|----------------|----------------|----------------|----------------|
B|----------------|----------------|----------------|----------------|
G|---------2------|----------------|-0---2----------|----------------|
D|-2---3----------|----------3-----|---------2------|---------3------|
A|----------------|----------------|----------------|----------------|
D|----------------|----------------|----------------|----------------|

e|----------------|----------------|----------------|---------0------|
B|----------------|-5---6---3------|-3--------------|----------------|
G|-------------5--|-------------2--|----------------|----------------|
D|-0---3---2------|----------------|-----5---3------|----------------|
A|----------------|----------------|----------------|----------------|
D|----------------|----------------|----------------|----------------|

e|----------------|----------------|----------------|----------------|
B|----------------|----------------|----------------|----------------|
G|-2---3---5------|---------2------|-2---3---5------|----------------|
D|----------------|----------------|----------------|----------------|
A|----------------|----------------|----------------|----------------|
D|----------------|----------------|----------------|----------------|

e|----------------|----------------|----------------|----------------|
B|----------------|----------------|----------------|----------------|
G|-0---2---3------|-0--------------|----------------|----------------|
D|----------------|----------------|-0---2---3------|----------------|
A|----------------|----------------|----------------|----------------|
D|----------------|----------------|----------------|----------------|

e|----------------|----------------|----------------|----------------|
B|----------------|----------------|----------------|----------------|
G|----------------|----------------|----------------|----------------|
D|---------7------|----------------|---------7------|----------------|
A|-----5---8------|---------8---7--|-----5---8------|---------10--8--|
D|-0--------------|----------------|-0--------------|----------------|
                                    
e|----------------|----------------|---------5------|----------------|
B|----------------|----------------|---------6------|---------8---6--|
G|----------------|-------------14-|----------------|----------------|
D|---------7------|---------12-----|----------------|----------------|
A|-----5---8------|----------------|-----5----------|----------------|
D|-0--------------|----------------|-0--------------|----------------|

e|---------5------|----------------|---------5------|----------------|
B|---------6------|---------6---8--|---------6------|---------8---6--|
G|----------------|----------------|----------------|----------------|
D|----------------|----------------|----------------|----------------|
A|-----5----------|----------------|-----5----------|----------------|
D|-0--------------|----------------|-0--------------|----------------|

e|---------5------|----------------|---------5------|----------------|
B|---------6------|----------------|---------6------|----------------|
G|----------------|----------------|----------------|----------------|
D|----------------|----------------|----------------|----------------|
A|-----5----------|----------------|-----5----------|----------------|
D|-0--------------|----------------|-0--------------|----------------|

e|---------5------|----------------|
B|---------6------|----------------|
G|----------------|----------------|
D|----------------|----------------|
A|-----5----------|----------------|
D|-0--------------|----------------|

Goes to the cello? bridge in the song

(Guitar 1) 1:19 - 1:46
Use Vibrato Everywhere

e|-17<<<----------|
B|----------------|
G|----------------|  Fade in with this note
D|----------------|
A|----------------|
E|----------------|

e|-15--17---------|----------------|-----13--12-----|----------------|
B|---------17-----|----------------|-15-------------|----------------|
G|----------------|----------------|----------------|----------------|
D|----------------|----------------|----------------|----------------|
A|----------------|----------------|----------------|----------------|
E|----------------|----------------|----------------|----------------|

e|----------------|----------------|-----15--17-----|----------------|
B|-15-------------|----------------|-15-------------|----------------|
G|----------------|----------------|----------------|----------------|
D|----------------|----------------|----------------|----------------|
A|----------------|----------------|----------------|----------------|
E|----------------|----------------|----------------|----------------|

e|-15--17---------|----------------|-----12--13-----|----------------|
B|---------17-----|----------------|-15-------------|----------------|
G|----------------|----------------|----------------|----------------|
D|----------------|----------------|----------------|----------------|
A|----------------|----------------|----------------|----------------|
E|----------------|----------------|----------------|----------------|

e|-15-------------|----------------|
B|----------------|----------------|
G|----------------|----------------|
D|----------------|----------------|
A|----------------|----------------|
E|----------------|----------------|

(Guitar 2) 1:17 - 1:45
Palm mute this for a simialar effect used in the song,
or not

e|----------------|----------------|
B|----------------|----------------|
G|----------------|----------------|
D|----------------|----------------| Plays this seven times in rythym
A|---------0------|----------------| with guitar 1
D|-0--------------|----------------|

e|----------------|----------------|
B|----------------|----------------|
G|----------------|----------------| Do this the 8th time
D|----------------|-0--------------|
A|---------0------|--------0-------|
D|-0--------------|----------------|

Song goes back to piano part here

(Guitar 1) 1:46 - 2:27

e|----------------|
B|----------------| Hit this note as a precursor 
G|-------------14-|
D|----------------|
A|----------------|
E|----------------|

e|-17------19-----|-20-------------|-----17---------|----------------|
B|-----17---------|-------------17-|---------17-----|---------17-----|
G|----------------|----------------|-14-------------|-------------14-|
D|----------------|----------------|----------------|----------------|
A|----------------|----------------|----------------|----------------|
E|----------------|----------------|----------------|----------------|

e|-17-------------|----------------|-17-------------|----------------|
B|-----17--15-----|----------------|-----17--15-----|---------15--17-|
G|----------------|-------------14-|----------------|----------------|
D|----------------|----------------|----------------|----------------|
A|----------------|----------------|----------------|----------------|
E|----------------|----------------|----------------|----------------|

e|----------------|-17-------------|----------------|-17-------------|
B|-15-------------|-------------15-|-17------15-----|----------------|
G|----------------|---------14-----|----------------|-------------14-|
D|----------------|----------------|----------------|----------------|
A|----------------|----------------|----------------|----------------|
E|----------------|----------------|----------------|----------------|

e|-17------19-----|-20-------------|-----17---------|----------------|
B|-----17---------|-------------17-|---------17-----|---------17-----|
G|----------------|----------------|-14-------------|-------------14-|
D|----------------|---------17-----|----------------|----------------|
A|----------------|----------------|----------------|----------------|
E|----------------|----------------|----------------|----------------|

e|-17-------------|----------------|-17-------------|----------------|
B|-----17--15-----|----------------|-----17--15-----|-----15------17-|
G|----------------|--------12--14--|-------------14-|-12------14-----|
D|----------------|----------------|----------------|----------------|
A|----------------|----------------|----------------|----------------|
E|----------------|----------------|----------------|----------------|

e|----------------|-------------17-|----------------|
B|-15-------------|---------15-----|-15-------------|
G|-------------14-|----------------|----------------|
D|----------------|----------------|----------------|
A|----------------|----------------|----------------|
E|----------------|----------------|----------------|


(Guitar 2) 1:46 - 2:40

e|-5-------7------|---------3------|-5--------------|---------5------|
B|-----5----------|-------------3--|-----3---3------|----------------|
G|-------------5--|-7--------------|---------2------|----------------|
D|----------------|----------------|----------------|-0--------------|
A|----------------|-----5----------|----------------|----------------|
D|----------------|----------------|----------------|----------------|

e|-------------1--|----------------|-5--------------|----------------|
B|-----5---3------|----------------|-----5---6------|-----5----------|
G|-2--------------|----------------|----------------|---------7------|
D|----------------|----------------|----------------|----------------|
A|----------------|----------------|----------------|----------------|
D|----------------|----------------|----------------|----------------|

e|----------------|-----0-------3--|-------------1--|----------------|
B|-5---3---3---1--|---------3------|-----5---3------|-5---3---1------|
G|-7--------------|-2--------------|-2--------------|----------------|
D|-0--------------|----------------|----------------|----------------|
A|----------------|----------------|----------------|----------------|
D|----------------|----------------|----------------|----------------|

e|---------5------|----------------|-----5----------|-------------5--|
B|-----3----------|---------3------|---------5---3--|-1-------5------|
G|----------------|----------------|----------------|-----2----------|
D|----------------|----------------|----------------|----------------|
A|----------------|----------------|----------------|----------------|
D|----------------|----------------|----------------|----------------|

e|---------5------|---------3---5--|----------------|----------------|
B|-----3---3------|----------------|-5---6-------6--|-----5----------|
G|----------------|----------------|---------7------|----------------|
D|-----0----------|----------------|----------------|----------------|
A|----------------|----------------|----------------|----------------|
D|----------------|----------------|----------------|----------------|

e|----------------|----------------|-0--------------|-----0---1------|
B|-5--------------|----------------|-----1---3---1--|-3-----------3--|
G|-7--------------|----------------|----------------|----------------|
D|----------------|----------------|----------------|----------------|
A|----------------|----------------|----------------|----------------|
D|----------------|----------------|----------------|----------------|

e|----------------|----------------|-----1-------1--|-0--------------|
B|-3-------3------|----------------|-3-------3------|-----3---1------|
G|-----2-------2--|-------------2--|----------------|-------------2--|
D|----------------|----------------|-0--------------|----------------|
A|----------------|----------------|----------------|----------------|
D|-0--------------|----------------|----------------|----------------|

e|----------------|-----0----------|
B|-3-------3------|-3--------------|
G|-----2-------2--|----------------|
D|-0--------------|----------------|
A|----------------|----------------|
D|----------------|----------------|

Then the weird string / voice outro

(Guitar 2) follows the voice, I had a hard time tabbing this part so
sorry if it isn't super great  2:40 - 3:21

e|-10-------------|-13-------------|-10-10-10-------|-13-----17------|
B|----------------|----------------|----------------|----------------|
G|----------------|----------------|----------------|----------------|
D|----------------|----------------|----------------|----------------|
A|----------------|----------------|----------------|----------------|
D|----------------|----------------|----------------|----------------|

e|----------------|----------------|--------10------|----------------|
B|----------------|----------------|----------------|--------10------|
G|----------------|----------------|----------------|----------------|
D|----------------|----------------|----------------|----------------|
A|----------------|----------------|----------------|----------------|
D|----------------|----------------|----------------|----------------|

e|--------10------|----------------|----------------|-10-------------|
B|----------------|----------------|----------------|-----10------10-|
G|----------------|----------------|----------------|----------------|
D|----------------|----------------|----------------|----------------|
A|----------------|----------------|----------------|----------------|
D|----------------|----------------|----------------|----------------|

e|----------------|----------------|
B|----------------|----------------|
G|-------------10-|-10-------------|
D|----------------|----------------|
A|----------------|----------------|
D|----------------|----------------|

(Guitar 1) Follows the strings 2:52 - 3:14

e|-12------10-----|----------------|-13-------------|-12-------------|
B|----------------|----------------|----------------|----------------|
G|----------------|----------------|----------------|----------------|
D|----------------|----------------|----------------|----------------|
A|----------------|----------------|----------------|----------------|
E|----------------|----------------|----------------|----------------|

e|-10-------------|----------------|
B|----------------|----------------|
G|----------------|----------------|
D|----------------|-8--------------|
A|----------------|----------------|
E|----------------|----------------|

3:22 - 3:38

e|-12------10-----|----------------|-13-------------|-12-------------|
B|----------------|----------------|----------------|----------------|
G|----------------|----------------|----------------|----------------|
D|----------------|----------------|----------------|----------------|
A|----------------|----------------|----------------|----------------|
E|----------------|----------------|----------------|----------------|

e|-10-------------|
B|----------------|
G|----------------|
D|----------------|
A|----------------|
E|----------------|

That it!

Email questions to azlizard13@yahoo.com 
Please give me credit if you use this tab for a video
Добавлено: 22.05.2012
Другие материалы по этой песне:

Страница создана 04.03.2012
http://primanota.ru/jesper-kyd/sanctuary-chords.htm
Привет, Гость.
Предлагаем пройти революционный курс по гитаре.
Подарок от PrimaNota.Ru, забирай!