PrimaNota.ru - самый крупный в мире бесплатный архив песенных текстов, аккордов, табулатур и нот


Jesper Kyd - City Of Rome - таба, видео

Регистрация Запомнить меня
Войти через:  Facebook Google Twitter Vk Yandex Mail.ru

Jesper Kyd - City Of Rome - таба, видео

Печатать
Просмотров: 345
Авторы музыки: Jesper Kyd

Artist: Jesper Kyd
Album: Assassin's Creed: Brotherhood
Song: City of Rome
Tabbed by: A Dead Fly

All instruments transcribed to guitar

Guitar 1 - Drop D tuning
Guitar 2 - Standard tuning
Guitar 3 - Standard tuning

0:00 - 0:07

Guitar 1

e|----------------|
B|----------3-----| Hit Note Quietly as a precursor
G|----------------|
D|----------------|
A|----------------|
D|----------------|

e|----------------|----------------|----------------|----------------|
B|-3--3-3-3--3-3--|-3--3-3-3--3-3--|-3--3-3-3--3-3--|-3--3-3-3--3-3--|
G|-2--2-2-2--2-2--|-2--2-2-2--2-2--|-2--2-2-2--2-2--|-2--2-2-2--2-2--|
D|-0--0-0-0--0-0--|-0--0-0-0--0-0--|-0--0-0-0--0-0--|-0--0-0-0--0-0--|
A|-0------0-------|-0------0-------|-0------0-------|-0------0-------|
D|-0------0-------|-0------0-------|-0------0-------|-0------0-------|

Guitar 2

e|----------------|
B|----------------|
G|----------------|
D|----------------| Rest first bar
A|----------------|
E|----------------|

e|----------------|----------------|----------------|----------------|
B|-10------10-----|-10------10-----|-10------10-----|-10------10-----|
G|-7-------7------|-7-------7------|-7-------7------|-7-------7------|
D|-7---7-7-7--7-7-|-7---7-7-7--7-7-|-7---7-7-7--7-7-|-7---7-7-7--7-7-|
A|----------------|----------------|----------------|----------------|
E|----------------|----------------|----------------|----------------|

0:07 - 0:36

Guitar one

e|----------------|----------------|----------------|----------------|
B|-3--3-3-3--3-3--|-3--3-3-3--3-3--|-3--3-3-3--3-3--|-3--3-3-3--3-3--|
G|-2--2-2-2--2-2--|-2--2-2-2--2-2--|-2--2-2-2--2-2--|-2--2-2-2--2-2--| Play
D|-0--0-0-0--0-0--|-0--0-0-0--0-0--|-0--0-0-0--0-0--|-0--0-0-0--0-0--| this
A|-0------0-------|-0------0-------|-0------0-------|-0------0-------| 4.5
D|-0------0-------|-0------0-------|-0------0-------|-0------0-------| times

Guitar two

e|----------------|----------------|----------------|----------------|
B|-10------10-----|-10------10-----|-10------10-----|-10------10-----|
G|-7-------7------|-7-------7------|-7-------7------|-7-------7------| Play
D|-7---7-7-7--7-7-|-7---7-7-7--7-7-|-7---7-7-7--7-7-|-7---7-7-7--7-7-| This
A|----------------|----------------|----------------|----------------| 4.5
E|----------------|----------------|----------------|----------------| times

Guitar three

e|----------------|----------------|----------------|----------------|
B|----------------|------------0-1-|-3--------------|----------3-1-0-|
G|-2--------------|----------------|----------------|----------------|
D|----------------|----------------|----------------|----------------|
A|----------------|----------------|----------------|----------------|
E|----------------|----------------|----------------|----------------|

e|----------------|----------------|----------------|----------------|
B|----------------|--------------1-|----------------|----------------|
G|-2--------------|------------0---|-2V-------------|----------------|
D|----------------|----------------|----------------|----------------|
A|----------------|----------------|----------------|----------------|
E|----------------|----------------|----------------|----------------|

Play this twice with a 2 bar pause in between them

0:36 - 0:55

Guitar one

e|----------------|----------------|----------------|----------------|
B|-6--6-6-6--6-6--|-6--6-6-6--6-6--|-8--8-8-8--8-8--|-8--8-8-8--8-8--|
G|-5--5-5-5--5-5--|-5--5-5-5--5-5--|-7--7-7-7--7-7--|-7--7-7-7--7-7--|
D|-3--3-3-3--3-3--|-3--3-3-3--3-3--|-5--5-5-5--5-5--|-5--5-5-5--5-5--|
A|-3------3-------|-3------3-------|-5------5-------|-5------5-------|
D|-3------3-------|-3------3-------|-5------5-------|-5------5-------|

Sorry the notes got scrunched a bit
e|----------------|----------------|----------------|----------------|
B|10-10-101010-10-|10-10-101010-10-|-3--3-3-3--3-3--|-3--3-3-3--3-3--|
G|-9--9-9-9--9-9--|-9--9-9-9--9-9--|-2--2-2-2--2-2--|-2--2-2-2--2-2--|
D|-7--7-7-7--7-7--|-7--7-7-7--7-7--|-0--0-0-0--0-0--|-0--0-0-0--0-0--|
A|-7------7-------|-7------7-------|-0------0-------|-0------0-------|
D|-7------7-------|-7------7-------|-0------0-------|-0------0-------|

e|----------------|----------------|----------------|----------------|
B|-8--8-8-8--8-8--|-8--8-8-8--8-8--|----------------|----------------|
G|-7--7-7-7--7-7--|-7--7-7-7--7-7--|----------------|----------------|
D|-5--5-5-5--5-5--|-5--5-5-5--5-5--|-9--9-9-9--9-9--|-9--9-9-9--9-9--|
A|-5------5-------|-5------5-------|-9------9-------|-9------9-------|
D|-5------5-------|-5------5-------|-9------9-------|-9------9-------|

Guitar two

e|-8-------8------|-8-------8------|-10------10-----|-10------10-----|
B|-6-------6------|-6-------6------|-8-------8------|-8-------8------|
G|-5---5-5-5--5-5-|-5---5-5-5--5-5-|-7---7-7-7--7-7-|-7---7-7-7--7-7-|
D|----------------|----------------|----------------|----------------|
A|----------------|----------------|----------------|----------------|
E|----------------|----------------|----------------|----------------|

e|-12------12-----|-12------12-----|----------------|----------------|
B|-10------10-----|-10------10-----|-10------10-----|-10------10-----|
G|-9---9-9-9--9-9-|-9---9-9-9--9-9-|-7-------7------|-7-------7------|
D|----------------|----------------|-7---7-7-7--7-7-|-7---7-7-7--7-7-|
A|----------------|----------------|----------------|----------------|
E|----------------|----------------|----------------|----------------|

e|----------------|----------------|----------------|----------------|
B|----------------|----------------|----------------|----------------|
G|------0-------0-|------0-------0-|------4---4h5---|------4---4h5---|
D|----------5-----|----------5-----|--------------7-|--------------7-|
A|----------------|----------------|----------------|----------------|
E|----------------|----------------|----------------|----------------|

Guitar three

e|----------------|----------------|----------------|----------------|
B|----------------|----------------|----------------|----------------|
G|----------------|------------0-2-|--4-------------|------------2-4-|
D|-3--------------|----------------|----------------|----------------|
A|----------------|----------------|----------------|----------------|
E|----------------|----------------|----------------|----------------|

e|----------------|----------------|----------------|----------------|
B|----------------|----------------|----------------|----------------|
G|-5--------------|------------4-5-|-2--------------|----------------|
D|----------------|----------------|----------------|----------------|
A|----------------|----------------|----------------|----------------|
E|----------------|----------------|----------------|----------------|

e|----------------|----------------|----------------|----------------|
B|-8--------------|----------------|-12-------------|------------13--|
G|----------------|----------------|----------------|----------------|
D|----------------|----------------|----------------|----------------|
A|----------------|----------------|----------------|----------------|
E|----------------|----------------|----------------|----------------|

0:55 - 1:26

Guitar One

Keep playing this until you fade out somewhere before 1:26
e|----------------|----------------|----------------|----------------|
B|-3--3-3-3--3-3--|-3--3-3-3--3-3--|-3--3-3-3--3-3--|-3--3-3-3--3-3--|
G|-2--2-2-2--2-2--|-2--2-2-2--2-2--|-2--2-2-2--2-2--|-2--2-2-2--2-2--|
D|-0--0-0-0--0-0--|-0--0-0-0--0-0--|-0--0-0-0--0-0--|-0--0-0-0--0-0--|
A|-0------0-------|-0------0-------|-0------0-------|-0------0-------|
D|-0------0-------|-0------0-------|-0------0-------|-0------0-------|

Guitar two

e|-----10------10-|-----10------10-|-----10------10-|-----10------10-|
B|---------13-----|---------13-----|---------13-----|---------13-----|
G|----------------|----------------|----------------|----------------|
D|----------------|----------------|----------------|----------------|
A|----------------|----------------|----------------|----------------|
E|----------------|----------------|----------------|----------------|

e|----------------|----------------|----------------|----------------|
B|----------------|----------------|----------------|----------------|
G|-----10------10-|-----12------12-|-----14------14-|-----14------14-|
D|----------------|----------------|----------------|----------------|
A|---------12-----|---------12-----|---------12-----|---------12-----|
E|----------------|----------------|----------------|----------------|

e|----------------|
B|----------------|
G|-----14------14-| Play this three or four times until
D|----------------| volume fades to zero, then rest until
A|-12------12-----| the next time interval
E|----------------|

Guitar three

Hits the 10 to end last part, then follows the harp, for the harp
build up your volume to max around 1:12 or so then fade back to zero
around 1:26
e|----------------|----------------|--------7-------|--------7-------|
B|-10-------------|----------------|----6-----6-6---|----6-----6-6---|
G|----------------|----------------|--7---7-------7-|--7---7-------7-|
D|----------------|----------------|----------------|----------------|
A|----------------|----------------|----------------|----------------|
E|----------------|----------------|----------------|----------------|

Plays this same riff all the way through with the volume changes

e|--------7-------|--------7-------|--------7-------|--------7-------|
B|----6-----6-6---|----6-----6-6---|----6-----6-6---|----6-----6-6---|
G|--7---7-------7-|--7---7-------7-|--7---7-------7-|--7---7-------7-|
D|----------------|----------------|----------------|----------------|
A|----------------|----------------|----------------|----------------|
E|----------------|----------------|----------------|----------------|

1:26 - 1:41

Guitar two (preferably play this with delay)

e|----------------|----------------|----------------|----------------|
B|----10------10--|-11-----10------|----------------|----------------|
G|-7--------------|----------------|-10--10---------|-------------7--|
D|----------------|----------------|----------------|----------------|
A|----------------|----------------|----------------|----------------|
E|----------------|----------------|----------------|----------------|

e|----------------|----------------|----------------|----------------|
B|-7--10--(7)--7--|----------------|----------------|----------------|
G|----------------|-7--------------|-10-------7-----|-10------7------|
D|----------------|-----7-------7--|------7-------7-|-----7-------7--|
A|----------------|----------------|----------------|----------------|
E|----------------|----------------|----------------|----------------|

e|----------------|
B|----------------|
G|-10------7------|
D|-----7-------7--|
A|----------------|
E|----------------|

1:41 - 2:03

Guitar two

e|----------------|----------------|----------------|----------------|
B|-7--------------|-7--------------|----------------|----------------|
G|---------7------|---------7------|-10------7------|--10-----7------|
D|-----7-------7--|-----7------7---|------7-----7---|------7-----7---|
A|----------------|----------------|----------------|----------------|
E|----------------|----------------|----------------|----------------|

e|----------------|----------------|----------------|------------|
B|----------------|----------------|--7------(7)----|--7-----(7)-|
G|--5-------10----|--5------10--7--|-----(7)------7-|-----(7)----|
D|------7-------7-|------7---------|----------------|------------|
A|----------------|----------------|----------------|------------|
E|----------------|----------------|----------------|------------|

e|----------------|----------------|----------------|----------------|
B|------6---------|------6---------|------6---------|-----6----------|
G|--7-------7-----|--7------7------|--7-------7-----|--7------7------|
D|-------------7--|-------------7--|--------------7-|-------------7--|
A|----------------|----------------|----------------|----------------|
E|----------------|----------------|----------------|----------------|

e|----------------|
B|------6---------|
G|--7-------7-----|
D|-------------7--|
A|----------------|
E|----------------|

Guitar Three

e|-10-------------|-----------8--7-|----------------|-----------7--8-|
B|----------------|----------------|-10-------------|----------------|
G|----------------|----------------|----------------|----------------|
D|----------------|----------------|----------------|----------------|
A|----------------|----------------|----------------|----------------|
E|----------------|----------------|----------------|----------------|

e|-10-------------|----------------|----------------|------------|
B|----------------|----------------|-10-------------|------------|
G|----------------|----------------|----------------|------------|
D|----------------|----------------|----------------|------------|
A|----------------|----------------|----------------|------------|
E|----------------|----------------|----------------|------------|

e|-----10---------|----------------|----------------|----------------|
B|----------------|----------------|----10----------|----------------|
G|----------------|----------------|----------------|----------------|
D|----------------|----------------|----------------|----------------|
A|----------------|----------------|----------------|----------------|
E|----------------|----------------|----------------|----------------|

2:03 - 2:36

Guitar One

e|----------------|----------------|-7----8---10----|--10-----10-----|
B|--------10------|--10-----10-----|----------------|----------------|
G|----------------|----------------|----------------|----------------|
D|----------------|----------------|----------------|----------------|
A|----------------|----------------|----------------|----------------|
D|----------------|----------------|----------------|----------------|

e|-8--7h8p7-------|----------------|-------7--------|
B|----------10----|--10-----10-----|-8-------10-----|
G|-7--------------|----------------|----------------|
D|----------------|----------------|----------------|
A|----------------|----------------|----------------|
D|----------------|----------------|----------------|

e|----------------|
B|--10-----10-----|
G|----------------| play this bar 5 times
D|----------------|
A|----------------|
D|----------------|

e|-7----8---10----|--10-----10-----|-12-------8-----|--8------7------|
B|----------------|----------------|------10--------|----------------|
G|----------------|----------------|----------------|----------------|
D|----------------|----------------|----------------|----------------|
A|----------------|----------------|----------------|----------------|
D|----------------|----------------|----------------|----------------|

e|--7-------------|--7-----8p7p5---|--5-------5-----|--5------5------|
B|----------8-----|--8-------------|----------------|----------------|
G|----------------|----------------|----------------|----------------|
D|----------------|----------------|----------------|----------------|
A|----------------|----------------|----------------|----------------|
D|----------------|----------------|----------------|----------------|

e|--5------5------|
B|----------------|
G|----------------|
D|----------------|
A|----------------|
D|----------------|

Guitar 2

e|----------------|----------------|----------------|----------------|
B|------6---------|------7---------|------7---------|-----8----------|
G|--7-------7-----|--7------7------|--7-------7-----|--7------7------|
D|-------------7--|-------------7--|--------------7-|-------------9--|
A|----------------|----------------|----------------|----------------|
E|----------------|----------------|----------------|----------------|

e|----------------|----------------|----------------|----------------|
B|------8---------|----------------|----------------|------10--------|
G|--7-------7-----|-----10---------|-----10---------|--9-------9-----|
D|-------------10-|-12------12--10-|-12------12--10-|-------------10-|
A|----------------|----------------|----------------|----------------|
E|----------------|----------------|----------------|----------------|

e|----------------|----------------|----------------|----------------|
B|------10--------|-----10---------|-----10---------|----------------|
G|--9-------9-----|-10------10-----|-10------10-----|-11----------11-|
D|-------------12-|-------------12-|-------------12-|---------12-----|
A|----------------|----------------|----------------|-----12---------|
E|----------------|----------------|----------------|----------------|

e|----------------|----------------|----------------|----------------|
B|----------------|----------------|----------------|----------------|
G|---------10-----|-----10---------|-10-------------|----------------|
D|-----12---------|-12----------12-|---------10-----|-10-------9-----|
A|-12----------12-|---------12-----|-----12------8--|------8------10-|
E|----------------|----------------|----------------|----------------|

e|----------------|----------------|----------------|----------------|
B|----------------|---------10-----|-10------10-----|-10------10-----|
G|----------------|--------------7-|------7-------7-|------7-------7-|
D|--9-------9-----|--9-------------|----------------|----------------|
A|-----10------10-|-----10---------|----------------|----------------|
E|----------------|----------------|----------------|----------------|

e|----------------|
B|-10------10-----|
G|------7-------7-|
D|----------------|
A|----------------|
E|----------------|

2:36 - 2:59

Guitar One (follows the harp and plays quietly)

e|----------------|----------------|------5-------5-|------5-------5-|
B|--5---6---5---3-|--5---5---5---6-|--6-------6-----|--6-------6-----|
G|----------------|----------------|----------------|----------------|
D|----------------|----------------|----------------|----------------|
A|----------------|----------------|----------------|----------------|
D|----------------|----------------|----------------|----------------|

e|------5---5-----|----------------|----------------|------5-------5-|
B|--6-----------6-|--5---6---5---3-|--5---5---5---6-|--6-------6-----|
G|----------------|----------------|----------------|----------------|
D|----------------|----------------|----------------|----------------|
A|----------------|----------------|----------------|----------------|
D|----------------|----------------|----------------|----------------|

e|----------------|----------------|-----5-------5--|-----5---5-3----|
B|--5---6---5---3-|--5---5---5---6-|-6-------6------|-6-----------6--|
G|----------------|----------------|---7---7---7---7|---7---7--------|
D|----------------|----------------|----------------|----------------|
A|----------------|----------------|----------------|----------------|
D|----------------|----------------|----------------|----------------|

e|-----------3----|----------------|
B|-5---6---5---3--|-5---5---5---6--|
G|---7---7-------5|---7---7---7---7|
D|----------------|----------------|
A|----------------|----------------|
D|----------------|----------------|

Guitar two

e|----------------|----------------|----------------|
B|-10-----(10)----|----------------|----------------|
G|------7------(7)|------7------(7)|--7-----(7)--7--|
D|----------------|--7------(7)----|------7---------|
A|----------------|----------------|----------------|
E|----------------|----------------|----------------|

e|----------------|----------------|----------------|----------------|
B|----------------|----------------|----------------|----------------|
G|--7-----(7)-----|-----7----------|-7--------------|----------7-----|
D|-----7------(7)-|--7-----(7)--7--|---------7------|-(7)--7-------7-|
A|----------------|----------------|-----5------(5)-|----------------|
E|----------------|----------------|----------------|----------------|

e|----------------|
B|----------------|
G|--7-------(7)---| Rest until the next time interval
D|-----(7)--------|
A|----------------|
E|----------------|

Guitar three

e|----------------|----------------|----------------|----------------|
B|--------10------|----------------|-12-10-12-------|----------12-10-|
G|----------------|----------------|----------------|----------------|
D|----------------|----------------|----------------|----------------|
A|----------------|----------------|----------------|----------------|
E|----------------|----------------|----------------|----------------|

e|----------------|----------------|----------------|----------------|
B|----------------|----------------|----------------|----------------|
G|-12-10----------|----------------|-12-------------|----------------|
D|----------------|----------------|----------------|----------------|
A|----------------|----------------|----------------|----------------|
E|----------------|----------------|----------------|----------------|

e|----------------|----------------|----------------|----------------|
B|--------10------|----------10-12-|-13-----15------|-------------13-|
G|-12-------------|----------------|----------------|----------------|
D|----------------|----------------|----------------|----------------|
A|----------------|----------------|----------------|----------------|
E|----------------|----------------|----------------|----------------|

e|----------------|
B|-15-------------|
G|----------------|
D|----------------|
A|----------------|
E|----------------|

3:02 - 3:42

Guitar One

e|----------------|----------------|----------------|----------------|
B|-3--3-3-3--3-3--|-3--3-3-3--3-3--|-3--3-3-3--3-3--|-3--3-3-3--3-3--|
G|-2--2-2-2--2-2--|-2--2-2-2--2-2--|-2--2-2-2--2-2--|-2--2-2-2--2-2--|
D|-0--0-0-0--0-0--|-0--0-0-0--0-0--|-0--0-0-0--0-0--|-0--0-0-0--0-0--|
A|-0------0-------|-0------0-------|-0------0-------|-0------0-------|
D|-0------0-------|-0------0-------|-0------0-------|-0------0-------|

Play this same riff 6 and a half times, building up volume and getting
to full volume towards the end

Guitar two

e|----------------|----------------|----------------|----------------|
B|----------------|----------------|----------------|----------------|
G|------0-------0-|------0-------0-|------0-------0-|------0-------0-|
D|----------5-----|----------5-----|----------5-----|----------5-----|
A|----------------|----------------|----------------|----------------|
E|----------------|----------------|----------------|----------------|

Play this same riff 6 and a half times also building up volume and getting
to full volume towards the end

Guitar Three

e|----------------|----------------|----------------|----------------|
B|----------------|------------0-1-|-3--------------|----------3-1-0-|
G|-2--------------|----------------|----------------|----------------|
D|----------------|----------------|----------------|----------------|
A|----------------|----------------|----------------|----------------|
E|----------------|----------------|----------------|----------------|

e|----------------|----------------|----------------|----------------|
B|----------------|--------------1-|----------------|----------------|
G|-2--------------|------------0---|-2V-------------|----------------|
D|----------------|----------------|----------------|----------------|
A|----------------|----------------|----------------|----------------|
E|----------------|----------------|----------------|----------------|

Play this three times with pauses in between each other, gradually get
louder

3:42 - 4:08 (with all guitars back at full volume by now)

Guitar One

e|----------------|----------------|----------------|----------------|
B|-6--6-6-6--6-6--|-6--6-6-6--6-6--|-8--8-8-8--8-8--|-8--8-8-8--8-8--|
G|-5--5-5-5--5-5--|-5--5-5-5--5-5--|-7--7-7-7--7-7--|-7--7-7-7--7-7--|
D|-3--3-3-3--3-3--|-3--3-3-3--3-3--|-5--5-5-5--5-5--|-5--5-5-5--5-5--|
A|-3------3-------|-3------3-------|-5------5-------|-5------5-------|
D|-3------3-------|-3------3-------|-5------5-------|-5------5-------|

e|----------------|----------------|----------------|----------------|
B|10-10-101010-10-|10-10-101010-10-|-3--3-3-3--3-3--|-3--3-3-3--3-3--|
G|-9--9-9-9--9-9--|-9--9-9-9--9-9--|-2--2-2-2--2-2--|-2--2-2-2--2-2--|
D|-7--7-7-7--7-7--|-7--7-7-7--7-7--|-0--0-0-0--0-0--|-0--0-0-0--0-0--|
A|-7------7-------|-7------7-------|-0------0-------|-0------0-------|
D|-7------7-------|-7------7-------|-0------0-------|-0------0-------|

e|----------------|----------------|----------------|----------------|
B|10-10-101010-10-|10-10-101010-10-|12-12-121212-12-|12-12-121212-12-|
G|-9--9-9-9--9-9--|-9--9-9-9--9-9--|11-11-111111-11-|11-11-111111-11-|
D|-7--7-7-7--7-7--|-7--7-7-7--7-7--|-9--9-9-9--9-9--|-9--9-9-9--9-9--|
A|-7------7-------|-7------7-------|-9------9-------|-9------9-------|
D|-7------7-------|-7------7-------|-9------9-------|-9------9-------|

e|----------------|----------------|----------------|----------------|
B|15-15-151515-15-|15-15-151515-15-|15-15-151515-15-|15-15-151515-15-|
G|14-14-141414-14-|14-14-141414-14-|14-14-141414-14-|14-14-141414-14-|
D|12-12-121212-12-|12-12-121212-12-|12-12-121212-12-|12-12-121212-12-|
A|12------12------|12------12------|12------12------|12------12------|
D|12------12------|12------12------|12------12------|12------12------|

Guitar Two

e|-8-------8------|-8-------8------|-10------10-----|-10------10-----|
B|-6-------6------|-6-------6------|-8-------8------|-8-------8------|
G|-5---5-5-5--5-5-|-5---5-5-5--5-5-|-7---7-7-7--7-7-|-7---7-7-7--7-7-|
D|----------------|----------------|----------------|----------------|
A|----------------|----------------|----------------|----------------|
E|----------------|----------------|----------------|----------------|

e|-12------12-----|-12------12-----|----------------|----------------|
B|-10------10-----|-10------10-----|-10------10-----|-10------10-----|
G|-9---9-9-9--9-9-|-9---9-9-9--9-9-|-7-------7------|-7-------7------|
D|----------------|----------------|-7---7-7-7--7-7-|-7---7-7-7--7-7-|
A|----------------|----------------|----------------|----------------|
E|----------------|----------------|----------------|----------------|

e|----------------|----------------|----------------|----------------|
B|----------------|----------------|----------------|----------------|
G|------0-------0-|------0-------0-|------4---4h5---|------4---4h5---|
D|----------5-----|----------5-----|--------------7-|--------------7-|
A|----------------|----------------|----------------|----------------|
E|----------------|----------------|----------------|----------------|

e|-----10------10-|-----10------10-|-----10------10-|-----10------10-|
B|---------13-----|---------13-----|---------13-----|---------13-----|
G|----------------|----------------|----------------|----------------|
D|----------------|----------------|----------------|----------------|
A|----------------|----------------|----------------|----------------|
E|----------------|----------------|----------------|----------------|

Guitar Three

e|----------------|------------3-5-|-7--------------|----------7-5-7-|
B|-6--------------|----------------|----------------|----------------|
G|----------------|----------------|----------------|----------------|
D|----------------|----------------|----------------|----------------|
A|----------------|----------------|----------------|----------------|
E|----------------|----------------|----------------|----------------|

e|-8--------------|------------7-8-|-5--------------|----------------|
B|----------------|----------------|----------------|----------------|
G|----------------|----------------|----------------|----------------|
D|----------------|----------------|----------------|----------------|
A|----------------|----------------|----------------|----------------|
E|----------------|----------------|----------------|----------------|

e|----------------|----------------|----------------|----------------|
B|-10-----12------|----------12-12-|-13-------------|----13p12h13-13-|
G|----------------|----------------|----------------|----------------|
D|----------------|----------------|----------------|----------------|
A|----------------|----------------|----------------|----------------|
E|----------------|----------------|----------------|----------------|

e|----------------|----------------|
B|-15-------------|----------------|
G|----------------|----------------|
D|----------------|----------------|
A|----------------|----------------|
E|----------------|----------------|

4:08 - 4:28

Guitar One

e|----------------|----------------|----------------|----------------|
B|15-15-151515-15-|15-15-151515-15-|15-15-151515-15-|15-15-151515-15-|
G|14-14-141414-14-|14-14-141414-14-|14-14-141414-14-|14-14-141414-14-|
D|12-12-121212-12-|12-12-121212-12-|12-12-121212-12-|12-12-121212-12-|
A|12------12------|12------12------|12------12------|12------12------|
D|12------12------|12------12------|12------12------|12------12------|

Play this twice and fade out, then rest

Guitar two

e|----------------|----------------|----------------|----------------|
B|----------------|----------------|----------------|----------------|
G|-----10------10-|-----12------12-|-----14------14-|-----14------14-|
D|----------------|----------------|----------------|----------------|
A|---------12-----|---------12-----|---------12-----|---------12-----|
E|----------------|----------------|----------------|----------------|

Play this once then rest

Guitar three

e|--------7-------|--------7-------|--------7-------|--------7-------|
B|----6-----6-6---|----6-----6-6---|----6-----6-6---|----6-----6-6---|
G|--7---7-------7-|--7---7-------7-|--7---7-------7-|--7---7-------7-|
D|----------------|----------------|----------------|----------------|
A|----------------|----------------|----------------|----------------|
E|----------------|----------------|----------------|----------------|

Play this until the end of the time interval fading out as you go

4:32 - End

Guitar two

e|----------------|----------------|----------------|----------------|
B|----------------|----------------|----------------|----------------|
G|----------------|----------------|----------------|----------------|
D|----------------|----------------|----------------|----------------|
A|-0--------------|------------2-3-|-5--------------|----------5-3-2-|
E|----------------|----------------|----------------|----------------|

e|----------------|----------------|----------------|----------------|
B|----------------|----------------|----------------|----------------|
G|----------------|----------------|----------------|----------------|
D|----------------|----------------|----------------|----------------|
A|-0--------------|--------------2-|-0--------------|----------------|
E|----------------|------------3---|----------------|----------------|

Play this set of bars twice then...

e|----------------|----------------|----------------|----------------|
B|----------------|----------------|----------------|----------------|
G|----------------|----------------|----------------|----------------|
D|----------------|----------------|----------------|----------------|
A|----------------|----------------|----------------|----------------|
E|-1--------------|------------3-5-|-7--------------|------------5-7-|

e|----------------|----------------|----------------|----------------|
B|----------------|----------------|----------------|----------------|
G|----------------|----------------|----------------|----------------|
D|----------------|----------------|----------------|----------------|
A|----------------|----------------|----------------|----------------|
E|-8--------------|------------7-8-|-5--------------|----------------|

Guitar Three

e|--------7-------|--------7-------|--------7-------|--------7-------|
B|----6-----6-6---|----6-----6-6---|----6-----6-6---|----6-----6-6---|
G|--7---7-------7-|--7---7-------7-|--7---7-------7-|--7---7-------7-|
D|----------------|----------------|----------------|----------------|
A|----------------|----------------|----------------|----------------|
E|----------------|----------------|----------------|----------------|

Starts playing this again and then fades out AGAIN until the song finally
ends

Email me at azlizard13@yahoo.com

Please give me credit if you use this tab for a video
Добавлено: 12.04.2012
Другие материалы по этой песне:

Страница создана 12.04.2012
http://primanota.ru/jesper-kyd/city-of-rome-chords.htm
Привет, Гость.
Предлагаем пройти революционный курс по гитаре.
Подарок от PrimaNota.Ru, забирай!