PrimaNota.ru - самый крупный в мире бесплатный архив песенных текстов, аккордов, табулатур и нот


Jesper Kyd - Vegas - таба, видео

Регистрация Запомнить меня
Войти через:  Facebook Google Twitter Vk Yandex Mail.ru

Jesper Kyd - Vegas - таба, видео

Печатать
Просмотров: 454
Уроки эстрадного вокала в Санкт-Петербурге
Seeing as there was no tab of my favourite "Blood Money" track 
here, I decided to give it a go. This covers pretty much 
everything in the song. C&C is very welcome.

Enjoy :)

Artist: Jesper Kyd
Song: Hitman - Vegas

#1 [00:00-00:50]
e|-------------------------------|
B|-------------------------------|
G|-------0-3----------0-3------2-|
D|-----0------------0------0-3---| x5
A|------------------------------ |
E|-(3)----------(3)--------------|


#2 [00:12-00:50] (note in brackets is played during the second replay)
e|------5--------5----------5--------6-5-----|
B|----6--(6)-------6------6--(6)---------7-8-|
G|-7-----------7----7---7----------7---------|
D|-------------------------------------------| x2
A|-------------------------------------------|
E|-------------------------------------------|


#3 [00:32-00:49] (x4)           [00:50-00:59] 
e|-------------------------|---------------------------|
B|-------------------------|---------------------------|
G|-------------------------|---------------------------|
D|-------------------------|---------------------------|
A|-------------------------|---------------------------|
E|-3--1/3-6---3-0-3-5-3--1-|-3---1-3--1-3-6--3-1-5-3-2-|


#4 [01:00-01:39]
e|-5--5-6-3---1--0---3--3-4----------3-|
B|--------------------------6---5--3---|
G|-------------------------------------|
D|-------------------------------------| x4
A|-------------------------------------|
E|-------------------------------------|

[01:40-01:58] #1, #2, #3


#5 [01:57-02:17]
e|--------0-----|----------------|
B|------3-------|----------3-1-3-|
G|----0---------|----------------|
D|----------(x4)|----------------|
A|-(3)----------|----------------|
E|--------------|----------------|
BASS: (left part played only during last 2 replays)
D|--------1-----|-------0--------|
A|--3---3-------|-3---3--3-0-----|
E|----3---------|---3--------3---|

[02:17-02:36] #1, #2, #3

[02:36-02:55] #2, #3, #4

[02:56-03:17] #1, #3

#6 [03:20-04:00]
e|-10----13\12-|
B|-------------|
G|-------------|
D|-------------| x8
A|-------------|
E|-------------|

[03:41-04:00] #4

[04:00-04:41] #3, #4

[04:22-04:41] e|-11-| x32 (yes, I had to!)

[04:42-05:02] #1, #3

#7 [05:02-05:22]
e|-5--5-6-3----1--1-3-0-----5--5-6--3--3--3-----------|
B|-5------3----1------1-----5-------3--3--3-----------|
G|-5------3----3------1-----5-------3--3--2(0)--0--0--|
D|-------------0------2----------------3--2(3)--2--1--|
A|-----------------------------------------(3)--2--1--|
E|----------------------------------------------------|

[05:26-05:45] #4

[05:45-06:28] #3, #4 (part #6 enters at 06:05)

-tAoat-
Добавлено: 23.03.2012
Вам также может быть интересно:
Другие материалы по этой песне:
  • Аккорды и текст

Страница создана 23.03.2012
http://primanota.ru/jesper-kyd/vegas-chords.htm
Привет, Гость.
Предлагаем пройти революционный курс по гитаре.
Подарок от PrimaNota.Ru, забирай!