PrimaNota.ru - самый крупный в мире бесплатный архив песенных текстов, аккордов, табулатур и нот


Jesper Kyd - Tour Of Venice - таба, видео

Регистрация Запомнить меня
Войти через:  Facebook Google Twitter Vk Yandex Mail.ru

Jesper Kyd - Tour Of Venice - таба, видео

Печатать
Просмотров: 210
Artist: Jesper Kyd
Album: Assassin's Creed II
Song: Tour of Venice
Tabbed By: A Dead Fly

Song transcribed for two guitars with standard tuning

0:00 - 0:12

Guitar One

e|---------17--18-|---------17--18-|-------17-18-22-18-|
B|-15--18---------|-15--18---------|15-18--------------|
G|----------------|----------------|-------------------|
D|----------------|----------------|-------------------|
A|----------------|----------------|-------------------|
E|----------------|----------------|-------------------|

e|-17----------17-18-22-|----22-17----------------|
B|----18-15-------------|----------18-15----------|
G|----------15----------|-22----------------------|
D|----------------------|-------------------------|
A|----------------------|-------------------------|
E|----------------------|-------------------------|

Guitar Two

(rest for first two bars of guitar one)
e|----------------|--------------5-|-------------------------|
B|----------------|----------6-----|--6----------------------|
G|----------------|------7---------|------7------------------|
D|----(7)-(7)-(7)-|--7-------------|----------7--(7)-(7)-(7)-|
A|----------------|----------------|-------------------------|
E|----------------|----------------|-------------------------|

0:12 - 0:55 

Guitar One (I suggest adding vibrato everywhere and hybrid picking)

e|----------------|----------8-----|----------------|----------------|
B|-10-------------|----------------|--------10------|-12-------------|
G|----------------|-10-------------|----------------|----------------|
D|----------------|----------7-----|----------------|----------------|
A|--8-------------|----------------|---------8------|-10-------------|
E|----------------|-10-------------|----------------|----------------|

e|----------------|----------------|
B|---------10-----|----------------|
G|-12-------------|----------------| Rest for a few seconds
D|----------------|----------------|
A|----------8-----|----------------|
E|-10-------------|----------------|

e|----------------|---------8------|----------------|----------------|
B|-10-------------|----------------|---------10-----|-12-------------|
G|----------------|-10-------------|----------------|----------------|
D|--7-------------|----------------|----------------|----------------|
A|----------------|--8------5------|----------8-----|-10-------------|
E|----------------|----------------|----------------|----------------|

e|--8------5------|----------------|
B|----------------|----------------|
G|----------------|----------------| Rest for a few seconds
D|----------------|----------------|
A|--5------8------|----------------|
E|----------------|----------------|

e|----------------|----------8-----|----------------|----------------|
B|-10-------------|----------------|--------10------|-12-------------|
G|----------------|-10-------------|----------------|----------------|
D|----------------|----------------|---------7------|----------------|
A|--8-------------|----------5-----|----------------|-10-------------|
E|----------------|----------------|----------------|----------------|

e|----------------|----------------|
B|---------10-----|----------------|
G|-12-------------|----------------| Rest for a few seconds
D|----------------|----------------|
A|----------8-----|----------------|
E|-10-------------|----------------|

Guitar Two

e|--------------5-|----------------|--------------5-|----------------|
B|----------6-----|--6-------------|----------6-----|--------------3-|
G|------7---------|------7---------|------7---------|----------4-----|
D|--7-------------|----------7---7-|--7-------------|------5---------|
A|----------------|----------------|----------------|----------------|
E|----------------|----------------|----------------|----------------|

e|--3-------------|------5---5--10-|-13--17--18-----|--------|
B|------3---------|--6-------------|----------------|--------|
G|--------------7-|----------------|----------------|------7-|
D|----------------|----------------|----------------|--7-----|
A|----------------|----------------|--------------8-|--------|
E|----------------|----------------|----------------|--------|


e|--------------5-|----------------|--------------5-|----------------|
B|----------6-----|--6-------------|----------6-----|--------------3-|
G|------7---------|------7---------|------7---------|----------4-----|
D|--7-------------|----------7---7-|--7-------------|------5---------|
A|----------------|----------------|----------------|----------------|
E|----------------|----------------|----------------|----------------|

e|--3-------------|------5---5--10-|-13--17--18--22-|
B|------3---------|--6-------------|----------------|
G|--------------7-|----------------|----------------|
D|----------------|----------------|----------------|
A|----------------|----------------|----------------|
E|----------------|----------------|----------------|

e|--------------5-|----------------|--------------5-|----------------|
B|----------6-----|--6-------------|----------6-----|--------------3-|
G|------7---------|------7---------|------7---------|----------4-----|
D|--7-------------|----------7---7-|--7-------------|------5---------|
A|----------------|----------------|----------------|----------------|
E|----------------|----------------|----------------|----------------|

e|--3-------------|------5---5--10-|-13--17---------|
B|------3---------|--6-------------|----------------| Rest for a little
G|--------------7-|----------------|----------------|
D|----------------|----------------|----------------|
A|----------------|----------------|----------------|
E|----------------|----------------|----------------|

0:55 - 1:49 

This part has weird timing so listen to the song closely, and to get
the notes to ring out for a long time, you can add a some gain if
you like, or you can continuously strum them (ecspecially guitar two)

Guitar One

e|-10-------------|--------5-------|----------------|----------------|
B|-10-------------|--10----8-------|---------6------|--5-------------|
G|----------------|--7-----5-------|---------7------|--7-------------|
D|----------------|--------7-------|---------7------|--7-------------|
A|----------------|----------------|---------5------|--5-------------|
E|----------------|----------------|----------------|----------------|

Hold that last chord until the vocalist enters in

Add vibrato to every note
e|------17--------|----------------|-------------22-|----------------|
B|-15-------------|----------------|----------------|----------------|
G|----------------|----------------|-------19-------|----------------|
D|----------------|----------------|----------------|----------------|
A|----------------|----------------|----------------|----------------|
E|----------------|----------------|----------------|----------------|

e|----------------|-------20-------|-19---------17--|----------------|
B|----------------|----------------|----------------|----------------|
G|----------------|-19-------------|----------------|----------------|
D|----------------|----------------|----------------|----------------|
A|----------------|----------------|----------------|----------------|
E|----------------|----------------|----------------|----------------|

e|-------20-------|-19---------17--|----------------|-------16-------|
B|----------------|----------------|----------------|-15-------------|
G|-19-------------|----------------|----------------|----------------|
D|----------------|----------------|----------------|----------------|
A|----------------|----------------|----------------|----------------|
E|----------------|----------------|----------------|----------------|

e|----------------|--------18------|----------------|--20------------|
B|----------------|----------------|----------------|----------------|
G|----------------|----------------|----------------|----------------|
D|----------------|----------------|----------------|----------------|
A|----------------|----------------|----------------|----------------|
E|----------------|----------------|----------------|----------------|
                                     Bend Up to this note if needed
e|----------------|----------------|-23-------------|----------------|
B|----------------|----------------|----------------|----------------|
G|----------------|----------------|----------------|----------------|
D|----------------|----------------|----------------|-22-------------|
A|----------------|----------------|----------------|----------------|
E|----------------|----------------|----------------|----------------|

Try to hold the 23 until the next section

Guitar Two

e|----------------|----------------|
B|----------------|----------------|
G|--7-------------|--7-------------|
D|--7-------------|--7-------------| Hold this chord until vocalist enters
A|----------------|--5-------------|
E|----------------|--5-------------|

e|--5-------------|
B|--x-------------|
G|--7-------------| Play this chord about ten bars (a long time)
D|--7-------------|
A|--5-------------|
E|--5-------------|

e|----------------|----------------|----------------|----------------|
B|----------------|----------------|----------------|----------------|
G|----------------|----------------|----------------|----------------|
D|-3--------------|----------5-----|----------------|--6-------------|
A|-3--------------|----------5-----|----------------|--6-------------|
E|-1--------------|----------3-----|----------------|--4-------------|

e|----------------|----------------|----------------|--8-------------|
B|----------------|----------------|----------------|----------------|
G|----------------|----------------|----------------|----------------|
D|---------8------|----------------|--10------------|----------------|
A|---------8------|----------------|--10------------|----------------|
E|---------6------|----------------|---8------------|----------------|

1:49 - 2:00

Guitar One

e|----------------|----------------|---------------|----------------|
B|----------------|----------------|---------------|----------------|
G|--7---9--10--12-|-10---9---7--5--|---7---9---10--|-----9----7-----|
D|----------------|----------------|---------------|----------------|
A|----------------|----------------|---------------|----------------|
E|----------------|----------------|---------------|----------------|

Guitar Two

e|----------------|
B|----------------|
G|----------------|
D|----------------| Quietly tremolo pick this note
A|--5-------------|
E|----------------|

2:00 - End

Guitar One (add Vibrato)

e|----------------|----------8-----|----------------|----------------|
B|-10-------------|----------------|--------10------|-12-------------|
G|----------------|-10-------------|----------------|----------------|
D|----------------|----------------|----------------|----------------|
A|----------------|----------------|----------------|----------------|
E|----------------|----------------|----------------|----------------|

e|----------------|----------------|
B|---------10-----|----------------|
G|-12-------------|----------------| Rest for a few seconds
D|----------------|----------------|
A|----------------|----------------|
E|----------------|----------------|

e|----------------|---------10-----|---------12-----|----------------|
B|-10-------------|----------------|----------------|-13-------------|
G|----------------|-10-------------|----------------|----------------|
D|----------------|----------------|----------------|----------------|
A|----------------|----------------|----------------|----------------|
E|----------------|----------------|----------------|----------------|

e|----------------|----------------|
B|-12------10-----|----------------|
G|----------------|----------------| Rest for a few seconds
D|----------------|----------------|
A|----------------|----------------|
E|----------------|----------------|

e|-13-------------|---------17-----|---------13-----|-15-------------|
B|----------------|-15-------------|----------------|----------------|
G|----------------|----------------|----------------|----------------|
D|----------------|----------------|----------------|----------------|
A|----------------|----------------|----------------|----------------|
E|----------------|----------------|----------------|----------------|

e|---------13-----|----------------|
B|-15-------------|----------------|
G|----------------|----------------| Rest for a few seconds
D|----------------|----------------|
A|----------------|----------------|
E|----------------|----------------|

e|-13-------------|---------15-----|---------17-----|-13-------------|
B|----------------|-15-------------|----------------|----------------|
G|----------------|----------------|----------------|----------------|
D|----------------|----------------|----------------|----------------|
A|----------------|----------------|----------------|----------------|
E|----------------|----------------|----------------|----------------|

e|---------12-----|----------------|----------------|----------------|
B|----------------|-15-------------|----------------|----------------|
G|----------------|---------9--10--|-12----10----9--|---7----5---7---|
D|----------------|----------------|----------------|----------------|
A|----------------|----------------|----------------|----------------|
E|----------------|----------------|----------------|----------------|

e|----------------|----------------|
B|----------------|----------------|
G|--9----10----9--|--7-------------|
D|----------------|----------------|
A|----------------|----------------|
E|----------------|----------------|

Guitar Two

e|--------------5-|----------------|--------------5-|----------------|
B|----------6-----|--6-------------|----------6-----|--------------3-|
G|------7---------|------7---------|------7---------|----------4-----|
D|--7-------------|----------7---7-|--7-------------|------5---------|
A|----------------|----------------|----------------|----------------|
E|----------------|----------------|----------------|----------------|

e|--3-------------|------5---5--10-|-13--17--18--22-|----------------|
B|------3---------|--6-------------|----------------|----------------|
G|--------------7-|----------------|----------------|----------------|
D|----------------|----------------|----------------|----------------|
A|----------------|----------------|----------------|----------------|
E|----------------|----------------|----------------|----------------|

e|----------------|----------5-----|----------------|----------------|
B|----------------|------6-------6-|----------------|----------------|
G|----------------|--7-------------|--7-------------|--7-------------|
D|-------------7--|----------------|------7---7---7-|------7-------5-|
A|----------------|----------------|----------------|----------------|
E|----------------|----------------|----------------|----------------|

e|----------3-----|--------------5-|--5--10---------|----------------|
B|------3-------3-|----------6-----|----------------|----------------|
G|--4-------------|------7---------|----------------|----------------|
D|----------------|----------------|----------------|----------------|
A|----------------|----------------|----------------|----------------|
E|----------------|----------------|----------------|----------------|

e|--------------5-|----------------|--------------5-|----------------|
B|----------6-----|--6-------------|----------6-----|--------------3-|
G|------7---------|------7---------|------7---------|----------4-----|
D|--7-------------|----------7---7-|--7-------------|------5---------|
A|----------------|----------------|----------------|----------------|
E|----------------|----------------|----------------|----------------|

e|--3-------------|------5---5--10-|----------------|----------------|
B|------3---------|--6-------------|----------------|----------------|
G|--------------7-|----------------|----------------|----------------|
D|----------------|----------------|----------------|----------------|
A|----------------|----------------|----------------|----------------|
E|----------------|----------------|----------------|----------------|

e|----------------|------5---------|----------------|----------------|
B|----------------|--6-------6-----|----------------|--6-------------|
G|--------------7-|--------------7-|--------------7-|----------------|
D|----------7-----|----------------|--7---7---7-----|------7-------5-|
A|----------------|----------------|----------------|----------------|
E|----------------|----------------|----------------|----------------|

e|----------3-----|--------------5-|----------------|------5---------|
B|------3-------3-|----------6-----|----------------|--6-------6-----|
G|--4-------------|------7---------|--------------7-|--------------7-|
D|----------------|----------------|----------7-----|----------------|
A|----------------|----------------|----------------|----------------|
E|----------------|----------------|----------------|----------------|

e|----------------|----------------|----------3-----|--------------5-|
B|----------------|--6-------------|------3-------3-|----------6-----|
G|--------------7-|----------------|--4-------------|------7---------|
D|--7---7---7-----|------7-------5-|----------------|----------------|
A|----------------|----------------|----------------|----------------|
E|----------------|----------------|----------------|----------------|

Email questions to azlizard13@yahoo.com 
Please give me credit if you use this tab for a video
This is in my favorite track off this soundtrack ;)
Добавлено: 29.04.2012
Другие материалы по этой песне:

Страница создана 21.04.2012
http://primanota.ru/jesper-kyd/tour-of-venice-chords.htm
Привет, Гость.
Предлагаем пройти революционный курс по гитаре.
Подарок от PrimaNota.Ru, забирай!