PrimaNota.ru - самый крупный в мире бесплатный архив песенных текстов, аккордов, табулатур и нот


Jesper Kyd - Rome Countryside - таба, видео

Регистрация Запомнить меня
Войти через:  Facebook Google Twitter Vk Yandex Mail.ru

Jesper Kyd - Rome Countryside - таба, видео

Печатать
Просмотров: 161
Уроки эстрадного вокала в Санкт-Петербурге
Artist: Jesper Kyd
Album: Assassin's Creed: Brotherhood
Song: Rome Countryside
Tabbed By: A Dead Fly

Song transcribed to two guitars with standard tuning

0:00 - 0:40

Guitar One

e|----------------|----------------|----------------|----------------|
B|----------------|----------------|----------------|----------------|
G|----------------|----------------|----------------|----------------|
D|--5-------------|--4-------------|--1-------------|----------------|
A|--6-------------|--6-------------|--X-------------|----------------|
E|--3-------------|--2-------------|--1-------------|----------------|

e|----------------|----------------|----------------|----------------|
B|----------------|----------------|----------------|----------------|
G|----------------|----------------|----------------|----------------|
D|--5-------------|--4-------------|--3-------------|----------------|
A|--5-------------|--5-------------|--3-------------|----------------|
E|--3-------------|--2-------------|--1-------------|----------------|

e|----------------|----------------|----------------|-10-------------|
B|-11-------------|----------------|----------------|-10-------------|
G|--9-------------|--8-------------|----------------|--7-------------|
D|--8-------------|--8-------------|----------------|--7-------------|
A|--9-------------|--6-------------|----------------|--8-------------|
E|----------------|--6-------------|----------------|----------------|

e|----------------|----------------|-10-------------|----------------|
B|------6---------|----------------|-10-------------|----------------|
G|------7---------|----------------|-11-------------|----------------|
D|------7---------|----------------|-12-------------|----------------|
A|------8---------|----------------|-12-------------|----------------|
E|----------------|----------------|-10-------------|----------------|

e|----------------|----------------|
B|--9-------------|----------------|
G|--9-------------|----------------|
D|--9-------------|----------------|
A|----------------|----------------|
E|----------------|----------------|

Guitar Two

e|--3-------------|--2-------------|--1-------------|----------------|
B|--4-------------|--4-------------|--4-------------|----------------|
G|--0-------------|----------------|----------------|----------------|
D|----------------|----------------|----------------|----------------|
A|----------------|----------------|----------------|----------------|
E|----------------|----------------|----------------|----------------|

e|--3-------------|--0-------------|--0-------------|----------------|
B|--5-------------|--7-------------|--1-------------|----------------|
G|--7-------------|--6-------------|----------------|----------------|
D|----------------|----------------|----------------|----------------|
A|----------------|----------------|----------------|----------------|
E|----------------|----------------|----------------|----------------|

e|-12-------------|-11-------------|----------------|-10-------------|
B|-11-------------|-11-------------|----------------|-10-------------|
G|--9-------------|--8-------------|----------------|--7-------------|
D|----------------|----------------|----------------|----------------|
A|----------------|----------------|----------------|----------------|
E|----------------|----------------|----------------|----------------|

e|-10------13-----|---------13-----|----17----------|----------------|
B|----------------|----------------|----------------|----------------|
G|----------------|----------------|----------------|----------------|
D|----------------|----------------|----------------|----------------|
A|----------------|----------------|----------------|----------------|
E|----------------|----------------|----------------|----------------|

e|-16-------------|-16----------16-|
B|-13-------------|----------------|
G|-12-------------|----------------|
D|----------------|----------------|
A|----------------|----------------|
E|----------------|----------------|

0:40 - 1:09

Guitar One

e|----------------|----------------|----------------|----------------|
B|----------------|-10<------------|----------------|--5-------------|
G|----------------|-10<------------|----------------|--5-------------|
D|----------------|--7<------------|----------------|--7-------------|
A|----------------|----------------|----------------|--7-------------|
E|----------------|----------------|----------------|--8-------------|

e|----------------|--3-------------|----------------|----------------|
B|----------------|--3-------------|----------------|----------------|
G|----------------|--4-------------|----------------|----------------|
D|----------------|--5-------------|----------------|----------------|
A|----------------|--5-------------|----------------|----------------|
E|----------------|--3-------------|----------------|----------------|

e|----------------|--1<------------|----------------|----------------|
B|----------------|--3<------------|----------------|----------------|
G|----------------|--2<------------|----------------|----------------|
D|----------------|--0<------------|----------------|----------------|
A|----------------|--0<------------|----------------|----------------|
E|----------------|----------------|----------------|----------------|

Guitar Two

e|-13-------------|-13-------------|----------------|-15-------15----|
B|----------------|----------------|----------------|----------------|
G|----------------|----------------|----------------|----------------|
D|----------------|----------------|----------------|----------------|
A|----------------|----------------|----------------|----------------|
E|----------------|----------------|----------------|----------------|


e|------15--------|-15-------------|----------------|
B|----------------|----------------|----------------| Rest Until Next
G|----------------|----------------|----------------| Section or Follow
D|----------------|----------------|----------------| Along With Guitar
A|----------------|----------------|----------------| One
E|----------------|----------------|----------------|

1:09 - 1:33

e|-11-------------|----------------|-10-------------|----------------|
B|-11-------------|----------------|-11-------------|----------------|
G|-12-------------|----------------|-12-------------|----------------|
D|-13-------------|----------------|-12-------------|----------------|
A|-13-------------|----------------|-10-------------|----------------|
E|-11-------------|----------------|-10-------------|----------------|

e|-13-------------|----------------|----------------|----------------|
B|-13-------------|----------------|----------------|----------------|
G|-14-------------|----------------|----------------|----------------|
D|-15-------------|----------------|----------------|----------------|
A|-15-------------|----------------|----------------|----------------|
E|-13-------------|----------------|----------------|----------------|

e|----------------|----------------|----------------|
B|----------------|----------------|----------------|
G|----------------|----------------|----------------|
D|-10-------------|----------------|----------------|
A|--X-------------|----------------|----------------|
E|--8-------------|----------------|----------------|

Guitar Two

e|-11-------------|----------------|-10-------------|----------------|
B|----------------|----------------|----------------|----------------|
G|----------------|----------------|----------------|----------------|
D|----------------|----------------|----------------|----------------|
A|----------------|----------------|----------------|----------------|
E|----------------|----------------|----------------|----------------|

e|-13-------------|----------------|----------------|----------------|
B|----------------|----------------|----------------|----------------|
G|----------------|----------------|----------------|----------------|
D|----------------|----------------|----------------|----------------|
A|----------------|----------------|----------------|----------------|
E|----------------|----------------|----------------|----------------|

e|-11-------------|----------------|----------------|
B|-13-------------|----------------|----------------|
G|----------------|----------------|----------------|
D|----------------|----------------|----------------|
A|----------------|----------------|----------------|
E|----------------|----------------|----------------|

1:33 - End

Guitar Two

e|----------------|----------------|----------------|----------------|
B|----------------|----------------|-------------10-|----------------|
G|-10-------------|-----10---------|--9--10---------|----------------|
D|----------------|----------------|----------------|-------------10-|
A|----------------|----------------|----------------|----------------|
E|----------------|----------------|----------------|----------------|

e|----------------|----------------|----------------|----------------|
B|----------------|----------------|----------------|--8-------------|
G|----------------|-9h10----9--9p7-|-------------7--|--------7-------|
D|-12-------------|----------------|----------------|----------------|
A|----------------|----------------|----------------|----------------|
E|----------------|----------------|----------------|----------------|

e|----------------|----------------|----------------|----------------|
B|----------------|----------------|----------------|-10-------------|
G|------7h9----9p7|h9-10-----------|-10-------------|----------------|
D|----------------|-------------12-|----------------|----------------|
A|----------------|----------------|----------------|----------------|
E|----------------|----------------|----------------|----------------|

e|----------------|----------------|----------------|-------------15-|
B|-8h10-----------|----------------|-12------13-----|-15-------------|
G|----------------|----------------|----------------|----------------|
D|----------------|----------------|----------------|----------------|
A|----------------|----------------|----------------|----------------|
E|----------------|----------------|----------------|----------------|

e|-13-----15------|-17----------22-|-19------20-----|-22-------------|
B|----------------|----------------|----------------|----------------|
G|----------------|----------------|----------------|----------------|
D|----------------|----------------|----------------|----------------|
A|----------------|----------------|----------------|----------------|
E|----------------|----------------|----------------|----------------|

e|----------------|-19--17---------|-12--13---------|----------------|
B|----------------|----------------|----------------|----------------|
G|----------------|----------------|----------------|----------------|
D|----------------|----------------|----------------|----------------|
A|----------------|----------------|----------------|----------------|
E|----------------|----------------|----------------|----------------|

e|-15-------------|----------------|----------------|----------------|
B|--------15------|---------13-----|-12-------------|----------------|
G|----------------|----------------|----------------|-12--14---------|
D|----------------|----------------|----------------|----------------|
A|----------------|----------------|----------------|----------------|
E|----------------|----------------|----------------|----------------|

Guitar One

e|-10-------------|----------------|----------------|----------------|
B|-10-------------|----------------|----------------|----------------|
G|-10-------------|----------------|----------------|----------------|
D|-12-------------|----------------|----------------|----------------|
A|-12-------------|----------------|----------------|----------------|
E|-10-------------|----------------|----------------|----------------|

e|--6-------------|----------------|----------------|--3-------------|
B|--6-------------|----------------|----------------|--3-------------|
G|--7-------------|----------------|----------------|--4-------------|
D|--8-------------|----------------|----------------|--5-------------|
A|--8-------------|----------------|----------------|--5-------------|
E|--6-------------|----------------|----------------|--3-------------|

e|----------------|----------------|-10-------------|----------------|
B|----------------|----------------|-10-------------|----------------|
G|----------------|----------------|-10-------------|----------------|
D|----------------|----------------|-12-------------|----------------|
A|----------------|----------------|-12-------------|----------------|
E|----------------|----------------|-10-------------|----------------|

e|----------------|----------------|-10-------------|----------------|
B|----------------|----------------|-12-------------|----------------|
G|----------------|----------------|-12-------------|----------------|
D|----------------|----------------|-12-------------|----------------|
A|----------------|----------------|-10-------------|----------------|
E|----------------|----------------|-10-------------|----------------|

e|-10-------------|----------------|-10-------------|----------------|
B|-10-------------|----------------|-12-------------|----------------|
G|--7-------------|----------------|-12-------------|----------------|
D|--7-------------|----------------|-12-------------|----------------|
A|----------------|----------------|-10-------------|----------------|
E|----------------|----------------|----------------|----------------|

e|----------------|----------------|-10-------------|----------------|
B|----------------|----------------|-10-------------|----------------|
G|----------------|----------------|-10-------------|----------------|
D|----------------|----------------|-12-------------|----------------|
A|----------------|----------------|-12-------------|----------------|
E|----------------|----------------|-10-------------|----------------|

e|-10-------------|----------------|----------------|----10----------|
B|-12-------------|----------------|----------------|----10----------|
G|-12-------------|----------------|----------------|----11----------|
D|-12-------------|----------------|----------------|----12----------|
A|-10-------------|----------------|----------------|----12----------|
E|----------------|----------------|----------------|----10----------|

That's all of it!  Email questions to azlizard13@yahoo.com
Please give me credit if you use this tab for a video
Добавлено: 25.03.2012
Другие материалы по этой песне:

Страница создана 19.03.2012
http://primanota.ru/jesper-kyd/rome-countryside-chords.htm
Привет, Гость.
Предлагаем пройти революционный курс по гитаре.
Подарок от PrimaNota.Ru, забирай!