PrimaNota.ru - самый крупный в мире бесплатный архив песенных текстов, аккордов, табулатур и нот


Jack Johnson - Drowning - аккорды и текст, видео

Регистрация Запомнить меня
Войти через:  Facebook Google Twitter Vk Yandex Mail.ru

Jack Johnson - Drowning - аккорды и текст, видео

Печатать
Просмотров: 83
Drowning
Jack Johnson



Date: Wed, 05 Oct 2005 19:50:43 +0200
From: marco astuti 
Subject: j/johnson_jack/drowning.crd

JACK JOHNSON
Drowning

Album= no title

Transcribed By: Marco D. Astuti (I am italian, excuse me for the possible 
grammatical errors  );

for more information, send a message at marcolino_11@hotmail.com

(per piщ informazioni o qualsiasi altra cosa mandatemi un e_mail a 
marcolino_11@hotmail.com)

structure of the song: intro; verse 1; chorus; verse 2; chorus; end.


intro:
            G#           C#           G#
e|---7--7---4--6--6--6---4--7--7--7---4--6--6---|  G#= Sol#
B|---5--5---4--4--4--4---5--5--5--5---4--4--4---|  C#= Do#
G|---4--4---5--5--5--5---5--4--4--4---5--5--5---|  E= Mi
D|---6--6---5--4--4--4---6--6--6--6---5--4--4---|
A|---4--4---6--6--6--6---4--4--4--4---6--6--6---|
E|---4--4---4--4--4--4---4--4--4--4---4--4--4---|


verse 1:

     C#   G#  G  F#
e|---4----4---3--2---|
B|---5----4---3--2---|
G|---5----5---4--3---|   repeat 5 times;
D|---6----5---4--3---|
A|---4----6---5--4---|
E|---4----4---3--2---|


chorus:

     E   G# C#    E   G# C#      (A) F#
e|---0---4--4-----0---4--4---|---(0)--2--|
B|---0---4--5-----0---4--5---|---(2)--2--|
G|---1---5--5-----1---5--5---|---(2)--3--|  (A) and F# are played only in 
D|---2---5--6-----2---5--6---|---(2)--3--|  the first refrain;
A|---2---6--4-----2---6--4---|---(0)--4--|  (La) si usa soltanto nel primo 
E|---0---4--4-----0---4--4---|---(0)--2--|   verso;

verse 2:

     C#   G#  G  F#
e|---4----4---3--2---|
B|---5----4---3--2---|
G|---5----5---4--3---|   repeat 3 times; (the first two times, jack plays 
D|---6----5---4--3---| only; instead,    in the last one, jack sings and plays).
A|---4----6---5--4---|                (le prime due volte del verso 2 jack suona
E|---4----4---3--2---|                 soltanto, l'ultima invece, canta e suona)


end
    C#  C#  G#  G#
e|--4---4---4---4--|
B|--5---5---4---4--|
G|--5---5---5---5--|  repeat 5 times.
D|--6---6---5---5--|
A|--4-------4------|
E|--4-------4------|

lyric: this song is very similar at Swim Ashore, album Brushfire 
Farytales, also the lyrics and the accords.
testo: questa canzone и molto simila a Swim Ashore, soltanto che cambiano 
alcuni accordi
       e alcune parole.

- intro,

- verse 1,

C#
Drink the water drink it down
This time I know I'm bound

G#                G F#
To spit it back up
I didn't want this

Salty substitute,
just not going to do
I need some air,
if I'm going to live through

This experience
reminds me of a clock
That just won't tick
I want to wake up

From this concussion
But my dreams just not done
I'm late again,
It's just one of those bad days

Look outside and
Be careful what you ride
You just might find
That you're out of time

- chorus,

E   G#       C#
To swim ashore

     E          G#
If I drift long enough

        C#    (A) F#
I'll be home

- verse 2,

Drink the water drink it down ...

- chorus,

To swim ashore
If I drift long enough
I'll be home

- end.

_________________________________________________________________


Добавлено: 20.01.2014
Другие материалы по этой песне:
  • Аккорды и текст

Страница создана 20.01.2014
http://primanota.ru/jack-johnson/drowning-chords.htm
Привет, Гость.
Предлагаем пройти революционный курс по гитаре.
Подарок от PrimaNota.Ru, забирай!