PrimaNota.ru - самый крупный в мире бесплатный архив песенных текстов, аккордов, табулатур и нот


Jack Johnson - Upside down1 - таба, видео

Регистрация Запомнить меня
Войти через:  Facebook Google Twitter Vk Yandex Mail.ru

Jack Johnson - Upside down1 - таба, видео

Печатать
Просмотров: 95


Listen to Rythym on Cd
Credit to:
jake Smith
E-mail-(jake2cor_13@msn.net)
Verse
E  Fm
Chorus
E  Fm  A  B
(hint: use barre chords.)

e|-------------------------------
b|-------------------------------
g|     h s        h s    h
d|-2--4/6/9---2--4/6/9--9/11-4---
a|-------------------------------
E|-------------------------------

e|
b|
g|
d|     h   h
a|----4/6-4/6-4---|
E|

And that's about it  Except...for the tabs of the barre chords 

  E   Fm   A   B
e|7---9----5---7-|
b|9---10---5---7-|
g|9---11---6---8-|
d|9---11---7---9-|
a|7---9----7---9-|
E|0--------5---7-|  

Добавлено: 23.12.2013
Другие материалы по этой песне:
  • Аккорды и текст

Страница создана 23.12.2013
http://primanota.ru/jack-johnson/upside-down1-chords.htm
Привет, Гость.
Предлагаем пройти революционный курс по гитаре.
Подарок от PrimaNota.Ru, забирай!