PrimaNota.ru - самый крупный в мире бесплатный архив песенных текстов, аккордов, табулатур и нот


Jack Johnson - Wasting time dvd cd version - таба, видео

Регистрация Запомнить меня
Войти через:  Facebook Google Twitter Vk Yandex Mail.ru

Jack Johnson - Wasting time dvd cd version - таба, видео

Печатать
Просмотров: 74
Уроки эстрадного вокала в Санкт-Петербурге


This is the version of wasting time off the Taylor DVD single. It has a 
different solo, fully tabbed out for your playing pleasure.

Tabbed by: James (james_n_lars@hotmail.com)

Intro riff
e--------------------5----------------------5-
B--------------------5--7h8---7h8-7-8-------5-
G--7---7---7-7-------6--7h9---7h9-7-9-------6-  x2
D--7h9-7h9-7-9-------7--7h9---7h9-7-9-7-----7-
A--------------7-5---7------------------7-5-7-
E--------------------5----------------------5-

(same chords throughout, except in chorus, listen to song for timing)
D    A                  Em      A 
And I'm just a waste of her energy
Don't you know that, she's just a waste of my time
So why don't we get together
and we could waste everything tonight
yeah we could waste everything tonight

Intro riff then back into normal chords

And I don't pretend to know what you know, no no
Now please don't pretend to know whats on my mind
But if we already know everything that everybody knows
We would have nothing to learn tonight
We would have nothing to show tonight

(Blues feel chord change from A to G# to G)

G
Everybody thinks that everybody knows about
A                             A G# G
Everybody else but nobody knows
G
Anything about themselves
      A
Cause they're all worried about everybody else

Intro riff into solo

solo
e---------------------------------------------------------
b--------------------------------------7-8p7-8p7-8p7------
g-7/9-7---------9/11-9---------7/9-7-9----------------9-7-
d--------9-7-7---------12-9-7-----------------------------
a---------------------------------------------------------
E---------------------------------------------------------

e----------------------------------------------------------------------------------------
b--------------------------------------7-8p7-8p7-8p7-------------------------------------
g-7/9-7---------9/11-9---------7/9-7-9----------------9p7-9p7-9p7-9p7--------------------
d--------9-7-7---------12-9-7------------------------------------------9p7-9p7-9p7-9p7---
a--------------------------------------------------------------------------------------9-
E----------------------------------------------------------------------------------------

e-----------------------------------------------------------------
b-8p7-8p7-8p7-----------------------------------------------------
g--------------9p7-9p7-9p7-9p7---7-9p7-9p7-9p7--------------------
d------------------------------9----------------9p7-9p7-9p7-9p7---
a---------------------------------------------------------------9-
E-----------------------------------------------------------------

e----------------------------------
b-8p7-8p7-8p7----------------------
g--------------9p7-9p7-9p7-9p7-----
d------------------------------9-7-
a----------------------------------
E----------------------------------


Loves just a waste of our energy
And lifes just a waste of our time
So why don't we get together
We could waste everything tonight
We could waste
We could waste it all 

(Blues feel chord change from A to G# to G)

G
Everybody thinks that everybody knows about
A                             A G# G
Everybody else but nobody knows
G
Anything about themselves
      A
Cause they're all worried about everybody else

Intro riff x4

End on D

Добавлено: 24.02.2014
Другие материалы по этой песне:
  • Аккорды и текст

Страница создана 24.02.2014
http://primanota.ru/jack-johnson/wasting-time-dvd-cd-version-chords.htm
Привет, Гость.
Предлагаем пройти революционный курс по гитаре.
Подарок от PrimaNota.Ru, забирай!