PrimaNota.ru - самый крупный в мире бесплатный архив песенных текстов, аккордов, табулатур и нот


Jack Johnson - Taylor1 - таба, видео

Регистрация Запомнить меня
Войти через:  Facebook Google Twitter Vk Yandex Mail.ru

Jack Johnson - Taylor1 - таба, видео

Печатать
Просмотров: 79


Jack Johnson - Taylor  from the On and On album

Tablature by Zandy Wight

[Intro]
|-------------------------------------------------------------------------------------------------------------
|-------------------------------------------------------------------------------------------------------------
|-------------------------------------------------------------------------------------------------------------
|-------X--------------------------------------------------------------------X--------1h3p1---1p0-------------
|-1h3---X----X-X-1h3p1---1---1----------------X---X-X-------1---2---X-2h3----X----X-X-------3-----1p0-0-------
|-------X--------------3-------3p1p0-1---1----X---X-X-1h2h3------------------X--------------------------1---1-

|---------------------------------------------------------------------------------------------------------0---
|-----------------------------------------------------------------------------------------4-------X-------1---
|---------------------------------------------0-------0-------0-------0-------------------2-------X---2-X-0---
|-X---------------------------------3-(3)/5-------3-------2-------0-------------------------------X---1-X-2---
|-X---X-X----1---1---1---1-3----X-X---------------------------------------3---3---X-----X-------------0-X-3---
|-X---X-X-1h3-1h3-1h3-1h3-------------------------------------------------1---1---X-----X---------------------
                                       
|-0-0-0-----0---0-0--0-0--0--------0---|
|-1-1-3-(3)/5---5-3--3-1--1--------1---|
|-0-0-0-----0---0-0--0-0--0-2p0-0--2---|
|----------------------------------3---|
|--------------------------------------|
|----------------------------------1---|

[Verse guitar part]
[Palm mute throughout..................................................]
|-----------------|-----------------|-----------------|----------------|
|-----------------|-----------------|-----------------|----------------|
|-----------------|-----------------|-----------------|----------------|
|-2-2-2-2-X-0-0-0-|-0-0-0-0-X-0-0-0-|-2-2-2-2-X-0-0-0-|-3-3-3-3-X-0-0-0|
|-3-3-3-3-X-0-0-0-|-2-2-2-2-X-0-0-0-|-0-0-0-0-X-0-0-0-|-3-3-3-3-X-0-0-0|
|-----------------|-----------------|-----------------|----------------|

[Verse]
  They say Taylor was a good girl never one to be late, complain, express ideas in her brain
  Workin on the night shift passin' out the tickets, you're gonna have to pay her  if you want to park here.
  Well mommy's little dancer has quite a little secret, workin on the streets now never gonna keep it
  It's quite an imposition and now she's only wishin' that she would have listened to the words they said.
  Poor Taylor.

[Chorus]
C               G              Am       Fmaj7
  Well she just wanders around,   unaffected by
C               G         Am    Fmaj7
  the winter winds, yeah,       she'll pretend that
C            G               Am    Fmaj7
  well she's somewhere else,    so far and clear
C       G            Fmaj7           [play verse guitar part once]
  about two-thousand miles... from here.

[Verse]
  Well Peter Patrick pitter patters on the window
  but Sunny Silhouette won't let him in
  and poor old Pete's got nothin 'cause he's been fallin'
  but somehow Sunny knows just where he's been
  He thinks that singin' on Sunday gonna save his soul
  now that Saturday's gone
  Now sometimes he thinks that he's on his way,
  but I could see, that his brake light's all gone
                           (listen carefully to the brake light lyrics if you dont believe me)
[Chorus]
  And he just wanders around, uneffected by
  the winter winds, yeah, and he'll pretend that
  well he's somewhere else, so far and clear
  about two-thousand miles, from here.

[Verse]
  Such a tough enchilada, fill up with nada, givin' whatcha gotta give to get a dollar bill
  She used to be a limber chick n' time's a been tickin' now she's finger lickin to the man
  with the money in his pocket, flyin' in his rocket only stoppin' by on his way to a better world
  
[Outro guitar part]
  1 e amp; a 2 e amp; a 3 e amp; a 4 e amp; a   1 e amp; a 2 e amp; a 3  e  amp;  a  4 e amp; a 

|-0-------0-0-0-0---0-0---0---0-0-|-0-------0-0-0-0----0--0-----0---0---|
|-1-------1-1-1-1/3-3-3---3---3-3-|-3/6-----6-6-6-6/8--8--8-----8---8--|
|-0-------0-0-0-0---0-0---0---0-0-|-0-------0-0-0-0----0--0-----0---0---|
|-2-------2-2-2-2/4-4-4---4---4-4-|-4/7-----7-7-7-7/9--9--9-----9---9--|
|-3-------3-3-3-3/5-5-5---5---5-5-|-5/8-----8-8-8-8/10-10-10----10--10-|
|---------------------------------|-------------------------------------|

[Outro]
  if Taylor finds a better world,
  Taylor's gonna run away

[Repeat Intro guitar]

Добавлено: 23.11.2013
Другие материалы по этой песне:
  • Аккорды и текст

Страница создана 23.11.2013
http://primanota.ru/jack-johnson/taylor1-chords.htm
Привет, Гость.
Предлагаем пройти революционный курс по гитаре.
Подарок от PrimaNota.Ru, забирай!