PrimaNota.ru - самый крупный в мире бесплатный архив песенных текстов, аккордов, табулатур и нот


Iron Savior - Starchaser - текст песни, таба, видео

Регистрация Запомнить меня
Войти через:  Facebook Google Twitter Vk Yandex Mail.ru

Iron Savior - Starchaser - текст песни, таба, видео

Печатать
Просмотров: 127
Iron Savior - Starchaser
From the album "Battering Ram" (2004)

Tabbed by imspazzen

Tune down to D:(low to high) D G C F A D


{[Intro]}
Rhythm                                          x2
D||-----------------------------------------------||
A||-----------------------------------------------||
F||*------------------9--------------------------*||
C||*-----4---------4--9-------4---------4-----6--*||
G||---6--2------6--2--7----6--2------6--2--4--4---||
D||---4---------4----------4---------4-----2------||

Lead
(slight palm mute on B string)            x3
D||---11-----9-----11-----12-----11---9-----||--11-----9-----11-----12------|
A||------9-9---9-9----9-9----9-9----9---9---||-----9-9---9-9----9-9----9-9--|
F||*---------------------------------------*||------------------------------|
C||*---------------------------------------*||------------------------------|
G||-----------------------------------------||------------------------------|
D||-----------------------------------------||------------------------------|

                                          x3
D||---11-----9-----11-----12-----11---9-----||--11-----9-----11-----12-----14b16~--|
A||------9-9---9-9----9-9----9-9----9---9---||-----9-9---9-9----9-9----9-9---------|
F||*---------------------------------------*||-------------------------------------|
C||*---------------------------------------*||-------------------------------------|
G||-----------------------------------------||-------------------------------------|
D||-----------------------------------------||-------------------------------------|



{[Main Riff]}                     x8
D||--------------------------------||
A||--------------------------------||
F||*------------------------------*||
C||*----4-----4-----4-----4--6----*||
G||-----2-----2-----2-----2--4-----||
D||---4---4-4---4-4---4-4----------||
      *   * *   * *   * *
Use your ring finger for the pedal notes



{[Verse]}                            x2
D||------------------------------------||-------------------------------------------|
A||------------------------------------||-------------------------------------------|
F||*----------------------------------*||-------------------------------------------|
C||*----------------------------------*||---------------------------4--4-2----------|
G||------------------------------------||---------------------------4--4-2-----x\---|
D||---2-2-2-2-2-2-2-2-2-2-2-2-2-2-2-2--||-2-2-2-2-2-2-2-2-2-2-2-2-2-2--2-0-----x\---|
      * * * * * * * * * * * * * * * *     * * * * * * * * * * * * *          pick slide


D|--------------------------------------------------------------------------------------------------------|
A|--------------------------------------------------------------------------------------------------------|
F|-------------------------------------------------------------------------------------------------4-2----|
C|--4-------------------------2-----2h4---4-----------4-----4-------4-------------------------4-2--4-2----|
G|--4-------------------------2-----2h4---4-----------4-----4-------4-------------------------4-2--2-0----|
D|--2-2-2-2-2-2-2-2-2-2-2-2-2---2-2-----2---2-2-2-2-2---2-2---2-2-2---2-2-2-2-2-2-2-2-2-2-2-2-2-0---------|
      * * * * * * * * * * * *   * *     *   * * * * *   * *   * * *   * * * * * * * * * * * *


{[Pre-Chorus]}
D|--------------------------------------------------------------|
A|--------------------------------------------------------------|
F|--------------------------------------------------------------|
C|--8-------8-----9---9-----9------ 11-------11-----11---11-----|
G|--6-6-6-6-6-6-6-6-6-6-6-6-6-6-6-6/-8-8-8-8--8-8-8--9-9--9-9-9-|
D|--------------------------------------------------------------|
      * * *   * *   *   * *   * * *    * * *    * *    *    * *

D|-------------------|
A|-------------------|
F|-------------------|
C|--9---8------------|
G|----------11---8---|
D|-------------------|
 |
D|-------------------|
A|-------------------|
F|-------------------|
C|-------------------|
G|--11--9---8--------|
D|---------------9---|


D|---------------------------------------------------------------------|
A|---------------------------------------------------------------------|
F|---------------------------------------------------------------------|
C|--8-------8-----9---9-----9------ 11-------11-----11-----------------|
G|--6-6-6-6-6-6-6-6-6-6-6-6-6-6-6-6/-8-8-8-8--8-8-8--9--4-6-4----------|
D|------------------------------------------------------------7-6-4-2--|
      * * *   * *   *   * *   * * *    * * *    * *        


{[Chorus]}                                                                                       x2
D||-----------------------------------------------------|------------------------------------------||
A||-----------------------------------------------------|------------------------------------------||
F||*----------9--11-------------------------------------|----------9--11---9-------9---------8----*||
C||*------6---9--11------6-----6---------6-----6--------|------6---9--11---9--9----9----4----8----*||
G||-------6---7---9------6-----6---------6-----6--------|------6---7---9---7--9----7----4----6-----||
D||---4-4-4--(7)-(9)---4---4-4---4-4-4-4---4-4---4-4-4--|--4-4-4--(7)-(9)-----7---------2----------||
      * *              *   * *   * * * *   * *   * * *     * *
   (TO BE FREE!)
D|------------|
A|------------|
F|------------|
C|--6--4--6---|
G|--6--4--6---|
D|--4--2--4---|


Play Main Riff 4 times

Play Verse (the full section)

{[Pre Chorus 2]}
(Played the same except for the first fill. Both guitars play this instead.)
D|------------------|
A|------------------|
F|------------------|
C|--6---8---6-------|
G|--------------9---|
D|------------------|


{[Chorus 2]}                                                                                     x2
D||-----------------------------------------------------|------------------------------------------||
A||-----------------------------------------------------|------------------------------------------||
F||*----------9--11-------------------------------------|----------9--11---9-------9---------8----*||
C||*------6---9--11------6-----6---------6-----6--------|------6---9--11---9--9----9----4----8----*||
G||-------6---7---9------6-----6---------6-----6--------|------6---7---9---7--9----7----4----6-----||
D||---4-4-4--(7)-(9)---4---4-4---4-4-4-4---4-4---4-4-4--|--4-4-4--(7)-(9)-----7---------2----------||
      * *              *   * *   * * * *   * *   * * *     * *

{[Guitar Solo]}
Rhythm Part
D|-------------------------------------------------|
A|-------------------------------------------------|
F|------------------------4------------------------|
C|--6------8--9-------4---2--4---------------------|
G|--4----6-6--7-------2------2--4------------------|
D|------------------------------2---2-2-2-2-2-2-2--|
         *                          * * * * * * *              x3
D||--------------------------------------------------------------||
A||--------------------------------------------------------------||
F||*--4---------------------------------------------------------*||
C||*--2--2-2-2-2-2-2-2-2-2-2-2-4---6------------------------4---*||
G||---2------------------------4---6------------------------4----||
D||----------------------------2-2-4--4-4-4-4-4-4-4-4-4-4-4-2-2--||
         * * * * * * * * * * *   *    * * * * * * * * * * *   *
D|--------------------------------------------------------------|
A|--------------------------------------------------------------|
F|--4-----------------------------------------------------------|
C|--2--2-2-2-2-2-2-2-2-2-2-2-4---6------------------------------|
G|--2------------------------4---6------------------------------|
D|---------------------------2-2-4--4-4-4-4-4-4-4-4-4-4-4-4-4-4-|
       * * * * * * * * * * *   *    * * * * * * * * * * * * * *

Solo                          x4
D||----------------------------||--------------------------------------------------------------------|
A||---16-17----17----17----17--||--------------------------------------------------------------------|
F||*--------18----16----18----*||--18b20--18b20--18b20r18p16-18-16-15-18-16-15-----------------------|
C||*--------------------------*||----------------------------------------------18--16--18--18b20~~---|
G||----------------------------||--------------------------------------------------------------------|
D||----------------------------||--------------------------------------------------------------------|
 |
D||---14-16----16----16----16--||--------------------------------------------------------------------|
A||---------17----16----17-----||--17b19--17b19--17b19r17p16-17-16-14-17-16-14-----------------------|
F||*--------------------------*||----------------------------------------------16--15--16--16b18~~---|
C||*--------------------------*||--------------------------------------------------------------------|
G||----------------------------||--------------------------------------------------------------------|
D||----------------------------||--------------------------------------------------------------------|


D|--------------------------16-18-19-18-16-------------16-16-------16-16-------16-------16-16-------16-16-|
A|--19b21--19b21~--19b21r19----------------19-16-19b21-------19b21-------19b21----19b21-------19b21-------|
F|--------------------------------------------------------------------------------------------------------|
C|--------------------------------------------------------------------------------------------------------|
G|--------------------------------------------------------------------------------------------------------|
D|--------------------------------------------------------------------------------------------------------|

                     x10
D||-------16-21p19p16--||------16-21b23~~--|
A||---19b-------------*||--19b-------------|
F||*------------------*||------------------|
C||*-------------------||------------------|
G||--------------------||------------------|
D||--------------------||------------------|

D|--16p0-18----19----21----19----18----16----------|-------------------(16)----------------|
A|----------17----17----17----17----17----16-16-16-|--19b21~~~----------19b21~~~~----------|
F|-------------------------------------------------|---------------------------------------|
C|-------------------------------------------------|-------(use whammy bar)----------------|
G|-------------------------------------------------|---------------------------------------|
D|-------------------------------------------------|---------------------------------------|

   really fast                                    x10
D|--16b18r16----------16----------||-16p14----------||-16p14-----------------|
A|-----------17-16-17----17-16-17-||-------17-16-17-||-------14\\\\\---------|
F|--------------------------------||*--------------*||---------(dive with)---|
C|--------------------------------||*--------------*||---------(whammy bar)--|
G|--------------------------------||----------------||-----------------------|
D|--------------------------------||----------------||-----------------------|


{[Bridge]}
D|-------------------------------------------|
A|-------------------------------------------|
F|----------------------9--------------------|
C|--6-------9--9--------9--9--4--------------|
G|--4----4--6--7----9---7--9--4----x\--------|
D|------------------7------7--2----x\--------|
         *                       pick slide

Play Main Riff 4 times

Play Chorus 2

{[Ending]}
Rhythm                                         
D|----------------------------------------------------|
A|----------------------------------------------------|
F|------------------9---------------------------------|
C|-----4---------4--9-------4---------4---------------|
G|--6--2------6--2--7----6--2------6--2--4-----6-4-6--|
D|--4---------4----------4---------4-----2-----4-2-4--|

Lead
(slight palm mute on B string)            x4
D||---11-----9-----11-----12-----11---9-----||--11-----9-----------------------|
A||------9-9---9-9----9-9----9-9----9---9---||-----9-9---9-9--9---------9~-----|
F||*---------------------------------------*||---------------------11----------|
C||*---------------------------------------*||---------------------------------|
G||-----------------------------------------||---------------------------------|
D||-----------------------------------------||---------------------------------|
 ||
D||-----------------------------------------||---------------19b20-19-19b20~~--|
A||-----------------------------------------||---------------------------------|
F||*---------------------------------------*||---------------------------------|
C||*---------------------------------------*||---------------------------------|
G||-----------------------------------------||---------------------------------|
D||-----------------------------------------||---------------------------------|

_____________________________________________________
That's it! Feel free to ask questions/give corrections ^^

Symbol Guide:
*=palm mute
h=hammer on
/=slide up
(#)=optional note
b=bend
r=release bend
~=vibrato
Добавлено: 13.08.2015
Другие материалы по этой песне:
  • Аккорды и текст

Страница создана 23.07.2012
http://primanota.ru/iron-savior/starchaser-chords.htm
Привет, Гость.
Предлагаем пройти революционный курс по гитаре.
Подарок от PrimaNota.Ru, забирай!