PrimaNota.ru - самый крупный в мире бесплатный архив песенных текстов, аккордов, табулатур и нот


Iron Savior - Tempest - таба, видео

Регистрация Запомнить меня
Войти через:  Facebook Google Twitter Vk Yandex Mail.ru

Iron Savior - Tempest - таба, видео

Печатать
Просмотров: 166
Уроки эстрадного вокала в Санкт-Петербурге
Tuning: Standard (E,A,D,G,B,e) [Play with heavy distortion]

Gtr I : Rhythm Guitar
Gtr II: Lead Guitar

# = let ring
X = stop ring
/ = begin slide
> = end slide
| = sense unit
 = hammer on

Intro:				
(Gtr I) Distortion		2x
e|----------------------------------------------------------|
B|---—------------------------------------------------------|
G|--2—----------------4-5--4-2------------------------------|
D|--2—----------------4-5--4-2------------------------------|
A|--2—----------------4-5--4-2--------------/3->10-9-5-7(2)-|
E|--0-----------------2-3--2-0---------------------------0--|

(Gtr II) Clean		2x
e|----------------------------------------------------------|
B|----------------------------------------------------------|
G|---------------------------------------------7--5--4------|
D|--------2-----------5---------------5--------7--5--4------|
A|----2-3---3-2---2-3-------------2-3---3-2----5--3--2------|
E|--0-----------0---------------0---------------------------|

(Gtr I) Distortion		2x
e|----------------------------------------------------------|
B|---—------------------------------------------------------|
G|--2—----------------4-5--4-2------------------------------|
D|--2—----------------4-5--4-2------------------------------|
A|--2—----------------4-5--4-2--------------/3->10-9-5-7(2)-|
E|--0-----------------2-3--2-0---------------------------0--|

(Gtr II) Clean		2x
e|---------------------------------------------------------|
B|---------------------------------------------------------|
G|--------2-----------5---------------5----------7--5--4---|
D|----2-3---3-2---2-3-------------2-3---3-2------7--5--4---|
A|--5-----------5---------------5----------------5--3--2---|
E|---------------------------------------------------------|

Lead In
(Gtr I) Distortion		
e|-------------------------|
B|----—---------------4-4--|
G|--4-4-4-4-4-4-4-5-5-4-4--|
D|--4-4-4-4-4-4-4-5-5-2-2--|
A|--2-2-2-2-2-2-2-3-3------|
E|-------------------------|

(Gtr II) Distortion	(same time as Gtr I)	
e|-----------------------------------------------|
B|------------------------------------------4-4--|
G|--------------------------------------5-5-4-4--|
D|--------5-----------5-----------5-----5-5-2-2--|
A|--0-2-3---3-2-5-3-2---3-2-5-3-2---3-2-3-3------|
E|-----------------------------------------------|

Verse I (the whole stuff 2x)
(Gtr I+II) Distortion		
e|-----------------------|-------------------|-------------------|------------------|
B|---—-------------------|-------------------|-------------------|------------------|
G|--5-5---5-5---5--------|-4-4---4-4---4-----|-5-5---5-5---5-----|-4-4---4-4---4-4--|
D|--5-5---5-5---5--------|-4-4---4-4---4-1---|-5-5---5-5---5-----|-4-4---4-4---4-4--|
A|--3-3---3-3---3-3-4----|-2-2---2-2---2---2-|-3-3---3-3---3-3-4-|-2-2---2-2---2-2--|
E|------0-----0----------|----0-----0--------|-----0-----0-------|-----0-----0------|
	
e|--------------------|-------------------|-----------------|------------------|
B|----—---------------|-6-6---6-6---6-----|-----------------|------------------|
G|--7-7---7-7---7-----|-6-6---6-6---6-----|-9-9---9-9---9-9-|------------------|
D|--7-7---7-7---7-----|-4-4---4-4---4---4-|-9-9---9-9---9-9-|------------------|
A|--5-5---5-5---5---5-|---------------5---|-7-7---7-7---7-7-|-8-7-8-7-8-7-8-7--|
E|------0-----0---6---|-----0-----0-------|-----0-----0-----|------------------|
								(tremolo)
Bridge / Pre-Chorus (the whole stuff 2x)
(Gtr I) Distortion		
e|------------------|---------------|----------------------------|
B|----—-------------|-5-#-----------|----------------------------|
G|--2-#-------------|-5-#-----------|-7-7---7-7----7-7--5-7-4-2--|
D|--2-#-------------|-3-#-0-2-3-2-2-|-7-7---7-7----7-7--5-7-4-2--|
A|--0-#-0-2-3-2-0---|---------------|-5-5---5-5----5-5--3-5-2-0--|
E|----------------3-|---------------|-----0------0---------------|

Chorus (the whole stuff 2x/ lead guitar plays all tones on "e" the second time)
(Gtr I) Distortion		
e|-----------------|----------------------------|-----------|----------|
B|-----------------|--------------|-------------|-7---------|----------|
G|--9-#-10-12-10-9-|-7-#-9-10-9-7-|-5-#-7-9-7-5-|-7---------|----------|
D|--9-#-10-12-10-9-|-7-#-9-10-9-7-|-5-#-7-9-7-5-|-5-5-6-5-6-5-6-5-6-5--|
A|--7-#-08-10-08-7-|-5-#-7-08-7-5-|-3-#-5-7-5-3-|-----------|----------|
E|-----------------|--------------|-------------|-----------|----------|

Verse II (the whole stuff 2x)
(Gtr I+II) Distortion		
e|-----------------------|-------------------|-------------------|------------------|
B|---—-------------------|-------------------|-------------------|------------------|
G|--5-5---5-5---5--------|-4-4---4-4---4-----|-5-5---5-5---5-----|-4-4---4-4---4-4--|
D|--5-5---5-5---5--------|-4-4---4-4---4-1---|-5-5---5-5---5-----|-4-4---4-4---4-4--|
A|--3-3---3-3---3-3-4----|-2-2---2-2---2---2-|-3-3---3-3---3-3-4-|-2-2---2-2---2-2--|
E|------0-----0----------|----0-----0--------|-----0-----0-------|-----0-----0------|
	
e|--------------------|-------------------|-----------------|------------------|
B|----—---------------|-6-6---6-6---6-----|-----------------|------------------|
G|--7-7---7-7---7-----|-6-6---6-6---6-----|-9-9---9-9---9-9-|------------------|
D|--7-7---7-7---7-----|-4-4---4-4---4---4-|-9-9---9-9---9-9-|------------------|
A|--5-5---5-5---5---5-|---------------5---|-7-7---7-7---7-7-|-8-7-8-7-8-7-8-7--|
E|------0-----0---6---|-----0-----0-------|-----0-----0-----|------------------|

Solo
(Gtr II) Distortion		
e|----------------------------------------------------------------------------------|
B|--15-13—11-11----15-13-11-13-10---------------------------------------------|
G|--------------12----------------------10-14-12-11-/12->17-20-19-17-19-17-15-14-#--|
D|----------------------------------------------------------------------------------|
A|----------------------------------------------------------------------------------|
E|----------------------------------------------------------------------------------|

e|----------------------------------------------------------------------------------|
B|--15-13—11-11----15-13-11-13-10---------------------------------------------|
G|--------------12----------------------10-14-12-11-/12->17-20-19-17-19-17-19-#-----|
D|----------------------------------------------------------------------------------|
A|----------------------------------------------------------------------------------|
E|----------------------------------------------------------------------------------|
Добавлено: 04.04.2012
Другие материалы по этой песне:
  • Аккорды и текст

Страница создана 04.04.2012
http://primanota.ru/iron-savior/tempest-chords.htm
Привет, Гость.
Предлагаем пройти революционный курс по гитаре.
Подарок от PrimaNota.Ru, забирай!