PrimaNota.ru - самый крупный в мире бесплатный архив песенных текстов, аккордов, табулатур и нот


Iron Savior - Watcher In The Sky - текст песни, таба, видео

Регистрация Запомнить меня
Войти через:  Facebook Google Twitter Vk Yandex Mail.ru

Iron Savior - Watcher In The Sky - текст песни, таба, видео

Печатать
Просмотров: 204
WATCHER IN THE SKY

WRITTEN BY KAI HANSEN AND PIET SELCK
AND PERFORMED BY GAMMARAY ON SOMEWHERE OUT IN SPACE ALBUM
AND IRON SAVIOR ON IRON SAVIOR ALBUM

THIS VERSION IS TAKEN FROM IRON SAVIOR ALBUM

TABBED BY ANDREAS ÖHRN

NORMAL TUNING  (EBGDAE)

INTRO:
E|---------------------------------------------------------|
B|---------- PLAY THIS PART 3 TIMES -----------------------|
G|---------------------------------------------------------|
D|-------------------------------------------------5-4-2-7-|
A|-------7-----7---7-----7-----7---7-----7-----7---3-2-0-5-|
E|---0-0---0-0---0---0-0---0-0---0---0-0---0-0---0---------|
    |P.M| |P.M| | | |P.M| |P.M| | | |P.M| |P.M| | |     
    
E|------------------------------------------------------------|
B|----------- THEN THIS ONCE ---------------------------------|
G|------------------------------------------------------------|
D|-------------------------------------------------5-4-2-9----|
A|-------7-----7---7-----7-----7---7-----7-----7---3-2-0-7----|
E|---0-0---0-0---0---0-0---0-0---0---0-0---0-0---0------------|
    |P.M| |P.M| | | |P.M| |P.M| | | |P.M| |P.M| | |

VERSE:
RIFF A
E|-----------------------------------------------------------|
B|-----------------------------------------------------------|
G|---------b-----------------------------b-------------------|
D|---------4(5)-4---------b--------------4(5)-4---5-----7----|
A|---5~--6--------6-5~--5-5(6)-3-6-5~--6--------6-3--5--5----|
E|---------------------------------------------------3-------|
RIFF B
E|---------------------------------------------------------|-------------------------|
B|---------- PLAY THIS PART 3 TIMES -----------------------|-------------------------|
G|---------------------------------------------------------|-------------------------|
D|-------7---7---7-------------------7---7---7-------------|-5---7---7---7---7-5-5-5-|
A|---5-5-5-5-5-5-5-----5-8-5-6---5-5-5-5-5-5-5-6---5-------|-3-5-5-5-5-5-5-5-5-3-3-3-|
E|-----------------6-8---------8-----------------8---6-8-5-|---3---------------------|
    |P.M| | | | |               |P.M| | | | |         

BRIDGE:
E|-----------------------------------------------------------------------------------|
B|-----------------------------------------------------------------------------------|
G|-----------------------------------------------------------------------------------|
D|---4-----4-----4-----4----------2--4--7-4--4-----4-----4-----4----------2--4--7-4--|
A|---2-2-2-2-2-2-2-2-2-2-0-2-3-5--0--2--5-2--2-2-2-2-2-2-2-2-2-2-0-2-3-5--0--2--5-2--|
E|-----------------------------3---------------------------------------3-------------|
      |P.M| |P.M| |P.M| |P.M..|               |P.M| |P.M| |P.M| |P.M..|

CHORUS:  2 GUITARS
E|-----------------------------------------------------------------------------------|
B|-----------------------------------------------------------------------------------|
G|-----------------------------------------------------------------------------------|
D|-----------------------------------------------------------------------------------|
A|---7~-10-9-7-3~-10-9-7---------2-5~--2-6-7~-10-9-7-3~-10-9-7--------2-5~-2-6-7~----|
E|-----------------------3~-3-5--------------------------------3~-3-5----------------|
     E         C         G         D   B   E         C         G        D  B   E

VERSE:
RIFF A
E|-------------------------------------------------------------------|
B|-------------------------------------------------------------------|
G|---------b-----------------------------b---------------------------|
D|---------4(5)-4---------b--------------4(5)-4----5-----7--5-5-5----|
A|---5~--6--------6-5~--5-5(6)-3-6-5~--6--------6--3--5--5--3-3-3----|
E|----------------------------------------------------3--------------|

BRIDGE:
SAME AS ABOVE

CHORUS:
SAME AS ABOVE

SOLO:
E|-----------------------------------------------------------------------------------|
B|-----------------------------------------------------------------------------------|
G|-----------------------------------------------------------------------------------|
D|-----------------------------------------------------------------------------------|
A|-------6-6p7-5p6~--7-9-10-15-14~--14-15-12-14----12-------12-14----12--------------|
E|---7~-----------------------------------------15----14-15-------15----14-15-12-14-7|
     B               C          B                              C                    B

E|-----------------------------------------------------------------------------------|
B|-----------------------b-----------------------------------------------------------|
G|---------------------8-9(11)-9-8-9-11-12-17-16~--16-17-14-16----14----------16-14--|
D|-------------------9-----------------------------------------17----16-17-14--------|
A|--------7-9p10-9~------------------------------------------------------------------|
E|---9-10----------------------------------------------------------------------------|
                     B             C    A     C    B                        C

E|-------------------------|
B|-------------------------|
G|---17-16-14--------------|
D|------------17-16-14~----|
A|-------------------------|
E|-------------------------|
                    D

BRIDGE:
E|-------------------------------------------------------------------------|
B|----------------- PLAY THIS PART 2 TIMES --------------------------------|
G|-------------------------------------------------------------------------|
D|----------------------------------------------------------------5-4-2----|
A|-----------4---------4---------4-4---4----------4---------4-----3-2-0----|
E|---2-2-2-2-2-2-2-2-2-2-2-2-2-2-2-2-2-2--2-2-2-2-2-2-2-2-2-2-2-2----------|
    | P.M...| | P.M...| | P.M...|   | |  | P.M...| | P.M...| |P.M|   

E|-------------------------------------------------------------------------|
B|----------------- PLAY THIS PART 2 TIMES --------------------------------|
G|-------------------------------------------------------------------------|
D|----------------------------------------------------------------7-6-4----|
A|-----------6---------6---------6-6---6----------6---------6-----5-4-2----|
E|---4-4-4-4-4-4-4-4-4-4-4-4-4-4-4-4-4-4--4-4-4-4-4-4-4-4-4-4-4-4----------|
    | P.M...| | P.M...| | P.M...|   | |  | P.M...| | P.M...| |P.M|

SOLO:
E|----------------------------------------------------------------------------------|
B|----------------------------------------------------------------------------------|
G|------------------------------------------------------------------------------b---|
D|--5p7~--5~--5p7-3-5p7~--7-5-3---------------------3-3-3-3-5-5-5-5-7-6-7-9-7-6-9(11)
A|------------------------------3~--3-3-3-3-5-5-5-5---------------------------------|
E|-- G ------------ Bb ------------ F ----------------------------------------- D# -|
                                   | P.M...........................|

E|----------------------------------------15p13p10----------------15p13p10-10p15----|
B|-------------------------13p15-13-13p15----------13p15-13-13p15-------------------|
G|---9-7-6---6-6p7-6----------------------------------------------------------------|
D|---------9---------9-7~-----------------------------------------------------------|
A|----------------------------------------------------------------------------------|
E|-------------- F ------- G ---------------------------------------------- Bb -----|

E|---15p13p10-13-10p13-15p13p10-13-10p13-15p13p10-13-13p15--------------------------|
B|---------------------------------------------------------11-11-11-11-13-13-13-13--|
G|----------------------------------------------------------------------------------|
D|----------------------------------------------------------------------------------|
A|----------------------------------------------------------------------------------|
E|--------------------------------------------------- F ----------------------------|

E|---------------13-13-13-13-15-13-15-18-20-18-17-13-15~----|
B|---15-15-15-15--------------------------------------------|
G|----------------------------------------------------------|
D|----------------------------------------------------------|
A|----------------------------------------------------------|
E|-------------- D# --------------------------- F ----------|

E|---------------------------------------------------------------------------------|
B|---8p0-7p0-8p0-10p0-8p0-7p0-8p0-7p0-8p0-10p0-8p0-7p0-8p0-7p0-8p0-10p0-8p0-7p0----|
G|---------------------------------------------------------------------------------|
D|---------------------------------------------------------------------------------|
A|---------------------------------------------------------------------------------|
E|-- E ---------------------- C ---------------------- E --------------------------|

E|--------------------|
B|---3-0-3~-7-4-7~----|
G|--------------------|
D|--------------------|
A|--------------------|
E|-- D ---- D# -------|

E|---------------------------------------------------------------------------------|
B|---8p0-7p0-8p0-10p0-8p0-7p0-8p0-7p0-8p0-10p0-8p0-7p0-8p0-7p0-8p0-10p0-8p0-7p0----|
G|---------------------------------------------------------------------------------|
D|---------------------------------------------------------------------------------|
A|---------------------------------------------------------------------------------|
E|-- E ---------------------- C ---------------------- E --------------------------|

E|--10-----13-------------| GUITAR 2 IS WRITTEN ON THIS LINE
B|---3-0-3~-7-4-7~-17~----|
G|------------------------|
D|------------------------|
A|------------------------|
E|-- D ---- D# -----------|

RIFF:
E|----------------------------------------------------------------------------------|
B|----------------------------------------------------------------------------------|
G|----------------------------------------------------------------------------------|
D|-----------------------------------5-4-2-7---------------------------------5-4-2-9|
A|-------7---7-7---7---7-7---7---7---3-2-0-5-----7---7-7---7---7-7---7---7---3-2-0-7|
E|---0-0---0-----0---0-----0---0---0---------0-0---0-----0---0-----0---0---0--------|
    |P.M| | |   | | | |   | | | | | |       |P.M| | |   | | | |   | | | | | | 

CHORUS  X 4

GUITAR 1 PLAYS AS CHORUS ABOVE
ON THE 3RD TIME GUITAR 2 PLAYS LIKE THIS
E|------------------------------------|
B|----- PLAY THIS TWICE --------------|
G|---9~-12-9~-12-----12-14~-16~-9~----|
D|---------------12~------------------|
A|------------------------------------|
E|------------------------------------|

OUTRO:
GUITAR 1
E|----------------------------------------------------------------------|
B|----------------------------------------------------------------------|
G|----------------------------------------------------------------------|
D|----------------------------------------------------------------------|  X LOTS
A|----------------------------------------------------------------------|
E|---0-0-0-0-0-0-0-0-0-0-0-0-0-0-0-0-0-0-0-0-0-0-0-0-0-0-0-0-0-0-0-0-0--|

GUITAR 2  
E|---------------------------------|
B|---------------------------------|
G|---9~-11/12-9~-14-12-11----9~----|
D|------------------------12-------|  X 4
A|---------------------------------|
E|---------------------------------|
Добавлено: 21.04.2012
Вам также может быть интересно:
Другие материалы по этой песне:
  • Аккорды и текст

Страница создана 21.04.2012
http://primanota.ru/iron-savior/watcher-in-the-sky-chords.htm
Привет, Гость.
Предлагаем пройти революционный курс по гитаре.
Подарок от PrimaNota.Ru, забирай!