PrimaNota.ru - самый крупный в мире бесплатный архив песенных текстов, аккордов, табулатур и нот


Interpol - Turn On The Bright Lights - таба, видео

Регистрация Запомнить меня
Войти через:  Facebook Google Twitter Vk Yandex Mail.ru

Interpol - Turn On The Bright Lights - таба, видео

Печатать
Просмотров: 180
Interpol - Turn On The Bright Lights


Band: Interpol
Song: Untitled
Album: Turn On The Bright Lights
Tuning: Standard => EADGBe
Notes: 	Guitar 1: Michael
	Guitar 2: Sam

Tracklist:	01: Untitled
		02: Obstacle 1
		03: NYC
		04: PDA
		05: Say Hello To The Angels
		06: Hands Away
		07: Obstacle 2
		08: Stella Was A Diver And She Was Always Down
		09: Roland
		10: The New
		11: Leif Erikson

---------------------------------------------------------------------------

Band: Interpol
Song: Untitled
Album: Turn On The Bright Lights
Tuning: Standard => EADGBe
Notes:/


Intro Guitar 2 w/ delay
E------------------|-----------------|----------------------------------|
B--4-4-4-4-4-4-4-4-|-4-4-4-4-4-4-4-4-|-2-2-2-2-2-2-2-2-2-2-2-2-2-2-4-4-4|
G--5-5-5-5-5-5-5-5-|-3-3-3-3-3-3-3-3-|-3-3-3-3-3-3-3-3-3-3-3-3-3-3-3-3-3|
D------------------|-----------------|----------------------------------|
A------------------|-----------------|----------------------------------|
E------------------|-----------------|----------------------------------|

Guitar 1 After Lyrics
E---------------|
B---------------|
G---------------|Repeat measure
D-15-15-15-15-15|  about 6x
A---------------|    then...
E---------------|

Tremolo picking until end of song
E-------|--------------------|
B-------|--------------------|
G-15-//-|-15-///14-///-15-//-|
D-------|--------------------|
A-------|--------------------|
E-------|--------------------|

Daniel (Guitar 2) plays this about the time when
Paul(Guitar 1) starts tremolo picking
E-------------|-------------|-------------------------|
B-4--4--4--4--|-3--3--3--3--|-2--2--2--2--2--2--2--2--|
G--5--5--5--5-|--4--4--4--4-|--3--3--3--3--3--3--3--3-|
D-------------|-------------|-------------------------|
A-------------|-------------|-------------------------|
E-------------|-------------|-------------------------|


Band: Interpol
Song: Obstacle 1
Album: Turn On The Bright Lights
Tuning: Standard => EADGBe
Notes:/

1---------------------------------------------------------|
2---------------------------------------------------------|
3---------------------------------------------------------|
4-10--10--10--10--10--7--7--7--7--7--7--7--7--10--10--10--|
5-8---8---8---8---8---8--8--8--0--0--0--0--0--0---0---0---|
6---------------------------------------------------------|  1X1

  guitar 1

1-----------------------------------------------------------------|
2-----------------------------------------------------------------|
3-----------------------------------------------------------------|
4-10--10--10--10--10--10--10--10--10--10--10--10--10--10--10--10--|
5-8---8---8---8---8---8---8---8---0---0---0---0---0---0---0---0---|
6-----------------------------------------------------------------|
|
| guitar 2
|
1-8---8-----------8---8-----------8---8-----------8---8---|
2-10--10----------10--10----------10--10----------10--10--|
3---------------------------------------------------------|
4---------------------------------------------------------|
5---------------------------------------------------------|
6---------------------------------------------------------|

  guitar 1

1----------------------------------------------------|
2----------------------------------------------------|
3----------------------------------------------------|
4-9--9--9--9--9--9--9--9--9--9--9--9--9--10--10--10--|
5-8--8--8--8--8--8--8--8--0--0--0--0--0--0---0---0---|
6----------------------------------------------------|
|
| guitar 2
|
1-8---8-----------8---8-----------8---8-----------8---8---|
2-10--10----------10--10----------10--10----------10--10--|
3---------------------------------------------------------|
4---------------------------------------------------------|
5---------------------------------------------------------|
6---------------------------------------------------------|

  guitar 1

1----------------------------------------------------|
2----------------------------------------------------|
3----------------------------------------------------|
4-7--7--7--7--7--7--7--7--7--7--7--7--7--10--10--10--|
5-8--8--8--8--8--8--8--8--0--0--0--0--0--0---0---0---|
6----------------------------------------------------|
|
| guitar 2
|
1-8---8-----------8---8-----------8---8-----------8---8---|
2-10--10----------10--10----------10--10----------10--10--|
3---------------------------------------------------------|
4---------------------------------------------------------|
5---------------------------------------------------------|
6---------------------------------------------------------|  2X1

  verse

  guitar 1

1-----------------------------------------------------------------|
2-----------------------------------------------------------------|
3-----------------------------------------------------------------|
4-10--10--10--10--10--10--10--10--10--10--10--10--10--10--10--10--|
5-8---8---8---8---8---8---8---8---0---0---0---0---0---0---0---0---|
6-----------------------------------------------------------------|
|
| guitar 2
|
1-8---8-----------8---8-----------8---8-----------8---8---|
2-10--10----------10--10----------10--10----------10--10--|
3---------------------------------------------------------|
4---------------------------------------------------------|
5---------------------------------------------------------|
6---------------------------------------------------------|  2X1

  guitar 1

1----------------------------------------------------|
2----------------------------------------------------|
3----------------------------------------------------|
4-7--7--7--7--7--7--7--7--7--7--7--7--7--10--10--10--|
5-8--8--8--8--8--8--8--8--0--0--0--0--0--0---0---0---|
6----------------------------------------------------|
|
| guitar 2
|
1-12--12----------12--12----------12--12----------12--12--|
2-13--13----------13--13----------13--13----------13--13--|
3---------------------------------------------------------|
4---------------------------------------------------------|
5---------------------------------------------------------|
6---------------------------------------------------------|  2X1

  guitar 1

1-----------------------------------------------------------------|
2-----------------------------------------------------------------|
3-----------------------------------------------------------------|
4-10--10--10--10--10--10--10--10--10--10--10--10--10--10--10--10--|
5-8---8---8---8---8---8---8---8---0---0---0---0---0---0---0---0---|
6-----------------------------------------------------------------|
|
| guitar 2
|
1-8---8-----------8---8-----------8---8-----------8---8---|
2-10--10----------10--10----------10--10----------10--10--|
3---------------------------------------------------------|
4---------------------------------------------------------|
5---------------------------------------------------------|
6---------------------------------------------------------|

  guitar 1

1----------------------------------------------------|
2----------------------------------------------------|
3----------------------------------------------------|
4-9--9--9--9--9--9--9--9--9--9--9--9--9--10--10--10--|
5-8--8--8--8--8--8--8--8--0--0--0--0--0--0---0---0---|
6----------------------------------------------------|
|
| guitar 2
|
1-8---8-----------8---8-----------8---8-----------8---8---|
2-10--10----------10--10----------10--10----------10--10--|
3---------------------------------------------------------|
4---------------------------------------------------------|
5---------------------------------------------------------|
6---------------------------------------------------------|

  guitar 1

1----------------------------------------------------|
2----------------------------------------------------|
3----------------------------------------------------|
4-7--7--7--7--7--7--7--7--7--7--7--7--7--10--10--10--|
5-8--8--8--8--8--8--8--8--0--0--0--0--0--0---0---0---|
6----------------------------------------------------|
|
| guitar 2
|
1-12--12----------12--12----------12--12----------12--12--|
2-13--13----------13--13----------13--13----------13--13--|
3---------------------------------------------------------|
4---------------------------------------------------------|
5---------------------------------------------------------|
6---------------------------------------------------------|  2X1

  guitar 1

1----------|
2----------|
3----------|
4-7--7-----|
5-8--8--%--|
6----------|
|
| guitar 2
|
1-12--12----------12--12----------12--12----------12--12--|
2-13--13----------13--13----------13--13----------13--13--|
3---------------------------------------------------------|
4---------------------------------------------------------|
5---------------------------------------------------------|
6---------------------------------------------------------|

  interlude

  guitar 1

1-12--12----------12--12----------12--12----------12--12--|
2-13--13----------13--13----------13--13----------13--13--|
3---------------------------------------------------------|
4---------------------------------------------------------|
5---------------------------------------------------------|
6---------------------------------------------------------|
|
| guitar 2
|
1-8---8-----------8---8-----------8---8-----------8---8---8---8---|
2-10--10----------10--10----------10--10----------10--10--10--10--|
3-----------------------------------------------------------------|
4-----------------------------------------------------------------|
5-----------------------------------------------------------------|
6-----------------------------------------------------------------|


  guitar 1

1-12--12----------12--12----------12--12----------12--12--|
2-13--13----------13--13----------13--13----------13--13--|
3---------------------------------------------------------|
4---------------------------------------------------------|
5---------------------------------------------------------|
6---------------------------------------------------------|
|
| guitar 2
|
1---------8---8-----------8---8-----------8---8-----------|
2---------10--10----------10--10----------10--10----------|
3---------------------------------------------------------|
4---------------------------------------------------------|
5---------------------------------------------------------|
6---------------------------------------------------------|

  chorus

1-------------------------------------------------------------|
2-------------------------------------------------------------|
3-------------------------------------------------------------|
4-10--10--10--10--10--10--10--10--10--10--10--10--9--9--9--9--|
5-8---8---8---8---8---8---8---8---8---8---8---8---7--7--7--7--|
6-------------------------------------------------------------|

1-------------------------------------------------|
2-------------------------------------------------|
3-------------------------------------------------|
4-7--7--7--7--7--7--7--7--9--9--9--9--9--9--9--9--|
5-0--0--0--0--0--0--0--0--7--7--7--7--7--7--7--7--|
6-------------------------------------------------|

1-------------------------------------------|
2-------------------------------------------|
3-9---9------9---9------9---9------9--9-----|
4-10--10-----10--10-----10--10-----9--9-----|
5-8---8---%--8---8---%--8---8---%--7--7--%--|
6-------------------------------------------|

1-------------------------------------------------|
2-------------------------------------------------|
3-9--9--9--9--9--9--9--9--9--9--9--9--9--9--9--9--|
4-7--7--7--7--7--7--7--7--9--9--9--9--9--9--9--9--|
5-0--0--0--0--0--0--0--0--7--7--7--7--7--7--7--7--|
6-------------------------------------------------|

  2nd verse

  guitar 1

1---------------------------------------------------------|
2---------------------------------------------------------|
3---------------------------------------------------------|
4-10--10--10--10--10--7--7--7--7--7--7--7--7--10--10--10--|
5-8---8---8---8---8---8--8--8--0--0--0--0--0--0---0---0---|
6---------------------------------------------------------|
|
| guitar 2
|
1---------------------------------------------------------|
2---------------------------------------------------------|
3------------------------------7--7--7--7--7--7--7-7-7-7--|
4------------------------------x--x--x--x--x--x--x-x-x-x--|
5------------------------------5--5--5--5--5--5--5-5-5-5--|
6---------------------------------------------------------|

  guitar 1

1---------------------------------------------------------|
2---------------------------------------------------------|
3---------------------------------------------------------|
4-10--10--10--10--10--7--7--7--7--7--7--7--7--10--10--10--|
5-8---8---8---8---8---8--8--8--0--0--0--0--0--0---0---0---|
6---------------------------------------------------------|
|
| guitar 2
|
1---------------------------------------------------------------------|
2---------------------------------------------------------------------|
3-10--10--10--10--10--10--10-10-10-10-14--14--14--14--14--14--14--14--|
4-x---x---x---x---x---x---x--x--x--x--x---x---x---x---x---x---x---x---|
5-8---8---8---8---8---8---8--8--8--8--12--12--12--12--12--12--12--12--|
6---------------------------------------------------------------------|

  guitar 1

1-----------------------------------------------------------------|
2-----------------------------------------------------------------|
3-----------------------------------------------------------------|
4-10--10--10--10--10--10--10--10--10--10--10--10--10--10--10--10--|
5-8---8---8---8---8---8---8---8---0---0---0---0---0---0---0---0---|
6-----------------------------------------------------------------|
|
| guitar 2
|
1-8---8-----------8---8-----------8---8-----------8---8---|
2-10--10----------10--10----------10--10----------10--10--|
3---------------------------------------------------------|
4---------------------------------------------------------|
5---------------------------------------------------------|
6---------------------------------------------------------|

  guitar 1

1------------------------------------------------------------|
2------------------------------------------------------------|
3------------------------------------------------------------|
4-10--10--10--10--10--10--10--10--7--7--7--7--7--10--10--10--|
5-8---8---8---8---8---8---8---8---0--0--0--0--0--0---0---0---|
6------------------------------------------------------------|
|
| guitar 2
|
1-8---8-----------8---8-----------8---8-----------8---8---|
2-10--10----------10--10----------10--10----------10--10--|
3---------------------------------------------------------|
4---------------------------------------------------------|
5---------------------------------------------------------|
6---------------------------------------------------------|

  guitar 1

1----------------------------------------------------|
2----------------------------------------------------|
3----------------------------------------------------|
4-7--7--7--7--7--7--7--7--7--7--7--7--7--10--10--10--|
5-8--8--8--8--8--8--8--8--0--0--0--0--0--0---0---0---|
6----------------------------------------------------|
|

| guitar 2
|
1-12--12----------12--12----------12--12----------12--12--|
2-13--13----------13--13----------13--13----------13--13--|
3---------------------------------------------------------|
4---------------------------------------------------------|
5---------------------------------------------------------|
6---------------------------------------------------------|  2X3

  guitar 1
1----------|
2----------|
3----------|
4-7--7-----|
5-8--8--%--|
6----------|
|
| guitar 2
|
1-12--12----------12--12----------12--12----------12--12--|
2-13--13----------13--13----------13--13----------13--13--|
3---------------------------------------------------------|
4---------------------------------------------------------|
5---------------------------------------------------------|
6---------------------------------------------------------|

1----------0--------------0--------------------|
2----1--------------1--------------1-----1-----|
3-2-----2--------2-----2--------2-----2-----2--|
4----------------------------------------------|
5----------------------------------------------|
6----------------------------------------------|  1X9

  guitar 1

1----------0--------------0--------------------|
2----1--------------1--------------1-----1-----|
3-2-----2--------2-----2--------2-----2-----2--|
4----------------------------------------------|
5----------------------------------------------|
6----------------------------------------------|
|
| guitar 2
|
1-------------------------------------------------|
2-------------------------------------------------|
3-------------------5--5--7--7--7--7--7--7--7--7--|
4-5--5--5--7--7--7--------------------------------|
5-------------------------------------------------|
6-------------------------------------------------|  2X11

  guitar 1

1----------0--------------0-----------------------|
2----1--------------1--------------1-----1--------|
3-2-----2--------2-----2--------2-----2-----2-----|
4----------------------------------------------%--|
5-------------------------------------------------|
6-------------------------------------------------|
|
| guitar 2
|
1----------------------------------------------------|
2----------------------------------------------------|
3-------------------5--5--7--7--7--7--7--7--7--7-----|
4-5--5--5--7--7--7-----------------------------------|
5----------------------------------------------------|
6-------------------------------------------------%--|


"but it's different now"
----------------------------------------------------|
----------------------------------------------------|
--10-10-10-10-10-10-10-10-10-10-10-10-9---9--9--9---|
--10-10-10-10-10-10-10-10-10-10-10-10-100-10-10-10--|
--8--8--8--8--8--8--8--8--8--8--8--8--7---7--7--7---|
----------------------------------------------------|


----------------------------------------------------|
----------------------------------------------------|
--9--9--9--9--9--9--9--9--9--9--9--9--9---9--9--9---|
--10-10-10-10-10-10-10-10-10-10-10-10-100-10-10-10--|
--0--0--0--0--0--0--0--0--10-10-10-10-100-10-10-10--|
--------------------------8--8--8--8--8---8--8--8---|


----------------------------------------------------|
----------------------------------------------------|
--9--9----------9--9--------------------------------|
--10-10---*3----10-10-------------------------------|
--8--8----------7--7--------------------------------|
----------------------------------------------------|

----------------------------------------------------|
----------------------------------------------------|
--9--9--9--9--9--9--9--9--9--9--9--9--9---9--9--9---|
--10-10-10-10-10-10-10-10-10-10-10-10-100-10-10-10--|
--0--0--0--0--0--0--0--0--10-10-10-10-100-10-10-10--|
--------------------------8--8--8--8--8---8--8--8---|

outro:
--------12---------12--------------------------------|
----13---------13--------13--13----------------------|
--14--14-----14--14----14--14--14--------------------|
-----------------------------------------------------|
-----------------------------------------------------|
-----------------------------------------------------|

Band: Interpol
Song: NYC
Album: Turn On The Bright Lights
Tuning: Standard => EADGBe
Notes: Comments to Barca_Rocks@hotmail.com or in the box.
Rate if you can be bothered.
Cheers, Tom

Guitar 1 (Daniel)

   F                             C
e|-x-x-x-x-x-x-x-x-x-x-x-x-x-x-x-x-x-x-x-x--|
B|-1-1-1-1-1-1-1-1-1-1-1-1-1-1-1-1-1-1-1-1--|
G|-2-2-2-2-2-2-2-2-2-2-2-2-2-2-2-0-0-0-0-0--|
D|-3-3-3-3-3-3-3-3-3-3-3-3-3-3-3-2-2-2-2-2--|
A|-3-3-3-3-3-3-3-3-3-3-3-3-3-3-3-3-3-3-3-3--|
E|------------------------------------------|

Guitar 2 (Paul)
Enters after two bars of first guitarist

   F                             C
e|-1-1-1-1-1-1-1-1-1-1-1-1-1-1-1-0-0-0-0-0--|
B|-1-1-1-1-1-1-1-1-1-1-1-1-1-1-1-1-1-1-1-1--|
G|-2-2-2-2-2-2-2-2-2-2-2-2-2-2-2-0-0-0-0-0--|
D|-3-3-3-3-3-3-3-3-3-3-3-3-3-3-3-2-2-2-2-2--|
A|-3-3-3-3-3-3-3-3-3-3-3-3-3-3-3-3-3-3-3-3--|
E|------------------------------------------|

Nothing exciting happens for a while. Paul has a break for two bars while
Micheal plays this....

Guitar 1

e|-----------------------------------------|
B|-----------------------------------------|
G|-----------------------------------------|
D|-----------------------------------------| X 7
A|--15--Picked fast up and down------------|
E|-----------------------------------------|

e|-----------------------------------------|
B|-----------------------------------------|
G|-----------------------------------------|
D|-----------------------------------------| X 1
A|--15/19-12-13-12-13----------------------|
E|-----------------------------------------|

Synthesiser comes in here- the notes are indicated in brackets.

e|---(13)(12)(13)(12)-(10)(8)-(13)-(17)(15)(13)-|
B|----------------------------------------------|
G|----------------------------------------------|
D|----15--14-15--14-12---14-15------------------|
A|--------------------15------------------------|
E|----------------------------------------------|

If this is confusing, just listen to the song.
Last chord is F for both guitars.


Band: Interpol
Song: PDA
Album: Turn On The Bright Lights
Tuning: Standard => EADGBe
Notes: /

guitar 1
----------------------------------------------------------|
--------------------------------------7--sl-12-//--10--//-|
----------------------------------------------------------|
--------------------9-//-7-//-9-//------------------------|
-9--//-----------------------------9-//-------------------|
-7-----10-10-10-10----------------------------------------|


--------------------------------------------------------------------|
--------------------------------------------------------------------|
--12-//--11-//--------11-//--12-//---11--//--------11-//--12-//-----|
----------------12-//------------------------12//-------------------|
--------------------------------------------------------------------|
--------------------------------------------------------------------|

(sleep tight)

---------------------0-0-0---------------------------|
---------------------9-9-9---------------------------|
--6--//---6-//--6----------------*3------------------|
--9--//---0-//--7--//--------------------------------|
--7--//---------0------------------------------------|
-----------------------------------------------------|


-----------------------------------------------------|
-----------------------------------------------------|
--8--//----8--//----8---//-------*2------------------|
--9--//----9--//----9---//---------------------------|
--7--//----9--//----6---//---------------------------|
-----------7--//-------------------------------------|

back to verse

outro
-----------------------------------------------------|
-----------------------------------------------------|
---8--//--(--8--//---8--//---8--//----)-----adlib----|
----------(--9--//---9--//---6--//----)--------------|
----------(---------7--//-------------)--------------|
-----------------------------------------------------|

guitar 2:

-----------------------------------------2---//------------------2---//---------|
-----------------------------------------2---//------------------2---//---------|
-------------------------(0)-------------2---//------------------2---//---------|
-----------------------------------------0---//------------------0---//---------|
--9--//---------------9--//----7--//--------------------9--//-------------------|
--7--//--10-10-10-10--7--//----5--//--------------------7--//-------------------|

-----------------------------------------------------|
---------------------------------------------12-//---|
--7-//-sl-14-//---------------------11-///-----------|  *2
----------------11-//--12-//--9-//-------------------|
-----------------------------------------------------|
-----------------------------------------------------|

chorus: see gt1 +
-----------------|
-----------------|
---7-7-7-7-7-7-7-|
---9-9-9-9-9-9-9-|
---7-7-7-6-6-6-6-|
-----------------|
back to verse


outro:

same as gt1 +:
-----------------------------------|
---------------------7-------------|
----8---8---8--//------8---8-------|
--9---9---9----//--------9---------|
-----------------------------------|
-----------------------------------|


Band: Interpol
Song: Say Hello To The Angels
Album: Turn On The Bright Lights
Tuning: Standard => EADGBe
Notes: VERSION 1

Guitar 1

-----------------------------------------------------|
-----------------------------------------------------|
-----------------------------------------------------|
-----------------------------------------------------|
--55555555555555555555555555555554-//----------------|
-----------------------------------------------------|

"watch silent parts"
--5-5-5--5-5-5555----//------------------------------|
--5-5-5--5-5-5555----//------------------------------|
--5-5-5--5-5-5555----//------------------------------|
-----------------------------------------------------|
-----------------------------------------------------|
-----------------------------------------------------|

"1,2,3"
--5--------5-------|
--5--------5-------|
--5--------5-------|
-------------------|
-------------------|
-------------------|


-5-5-5--5-5-5555----//----888----5--//-----888----5--//---555----|
-5-5-5--5-5-5555----//----888----5--//-----888----5--//---666----|
-5-5-5--5-5-5555----//----555----5--//-----555----5--//---555----| *4
-----------------------------------------------------------------|
-----------------------------------------------------------------|
-----------------------------------------------------------------|

"this is a concept"
-------------------------------|
-5-5-5-5---//----6-6-6-6-------|
-5-5-5-5---//----7-7-7-7-------|
-7-5-7-5---//----8-8-8-8-------|
-------------------------------|
-------------------------------|

intro
2nd verse

outro
--555--//---8-8-8-------|
--666--//---8-8-8-------|
--777--//---7-7-7-------|
------------------------|
------------------------|
------------------------|

guitar 2

-5-5-5-5-5-5-5-5-5-5-5-5-5-5-5-5---------------------|
-6-6-6-6-6-6-6-6-6-6-6-6-6-6-8-6---------------------|
-7-7-7-7-7-7-7-7-7-7-7-7-7-7-7-7---------------------|
-----------------------------------------------------|
-----------------------------------------------------|
-----------------------------------------------------|

-----------------------------------------------------------------------|
-6-5----6--5-5----6-5----6--5-5----------------------------------------|
-----7-5------7-5-----7-5------7-5---5-55-5--5-5-55-5-5-5-5--5-5-55-5--|
-----------------------------------------------------------------------|
-----------------------------------------------------------------------|
-----------------------------------------------------------------------|


"1,2,3"
--5--------5-------|
--5--------5-------|
--5--------5-------|
-------------------|
-------------------|
-------------------|

--10-//----8-//-----12-//---13-----------------------|
--10-//----8-//-----13-//---13-----------------------|
-----------------------------------------------------|
-----------------------------------------------------|
-----------------------------------------------------|
-----------------------------------------------------|


"this is a concept"
-------------------------------|
-5-5-5-5---//----6-6-6-6-------|
-5-5-5-5---//----7-7-7-7-------|
-7-5-7-5---//----8-8-8-8-------|
-------------------------------|
-------------------------------|

let ring
-----------------------------------------------------|
-10-------8-------------10-------8-------------------|
----10-10---10-10--9-10----10-10---10-100-9-10-------|
-----------------------------------------------------|
-----------------------------------------------------|
-----------------------------------------------------|

-----------------------------------------------------|
--15-------13-------13-----11-------10--------8------|
-----14-14----14-14----14-----10-10----110-10---10---|
-----------------------------------------------------|
-----------------------------------------------------|
-----------------------------------------------------|

intro
2nd verse

outro:

chord noise
------------------------------------------------------------|
------------------------------------------------------------|
--14---10--14--10--9---10--9---10--14----10--14---10--9-----|
------------------------------------------------------------|
--12---8---12--8---7---8---7---8---12----8---12---8---7-----|
------------------------------------------------------------|


Band: Interpol
Song: Say Hello To The Angels
Album: Turn On The Bright Lights
Tuning: Standard => EADGBe
Notes: VERSION 2
Guitar 2's pick-up is furthest to the right (if on a right-handed guitar)

Intro

Guitar 1
Played fast.

E|-------------------|----------------------------------|
B|-------------------|----------------------------------|           \
G|-------------------|-------------------|         -----|
D|-------------------|-------------------|  X2       ---|
A|--5-5-5-5-5-5-5-5--|--5-5-5-5-5-5-5-5--|       -------|
e|-------------------|-------------------|        ------|  repeated
							|-> until vocals
E|-------------------|-------------------|       -----|
B|-------------------|-------------------|       -----|
G|-------------------|-------------------|       -----|
D|-------------------|--------------------------------|           /
A|--4/5-5-5-5-5-5-5--|--5-5-5-5-5-5-5-5---------------|
e|-------------------|--------------------------------|

Guitar 2
Nothing for 8 bars
Then, all downstrokes

    Dm
E|--5--5--5--5--|--5--5--5--5------------|
B|--6--6--6--6--|--6--6--6--6------------|
G|--7--7--7--7--|--7--7--7--7------------|    \
D|--------------|--------------|      ---|
A|--------------|--------------|    -----|
e|--------------|--------------|     ----| played
					 |-> 4 times
E|--5--5--5--5--|--5--5--8--5--|    ---|
B|--6--6--6--6--|--6--6--8--6--|    ---|
G|--7--7--7--7--|--7--7--7--7----------|    /
D|--------------|----------------------|
A|--------------|----------------------|
e|--------------|----------------------|

Verse

Guitar 1 (Lead)
Riff

    Dm
E|------------------------|------------------------|
B|--6-5------6-5----------|--6-5------6-5----------|
G|------7--5-----7-5-5-5--|------7--5-----7-5-5-5--|
D|------------------------|------------------------|
A|------------------------|------------------------|
e|------------------------|------------------------|
    Am
E|------------------------|------------------------|
B|------------------------|------------------------|
G|----5-5---5-5----5-5----|----5-5---5-5---5-7-----|
D|--7-----7------7--------|--7-----7-----7---------|
A|------------------------|------------------------|
e|------------------------|------------------------|

Guitar 2 (Rhythm)
Chords
    Dm
E|--5--5--5--5--|--5--5--5--5--|
B|--6--6--6--6--|--6--6--6--6--|
G|--7--7--7--7--|--7--7--7--7--|
D|--7--7--7--7--|--7--7--7--7--|
A|--------------|--------------|
e|--------------|--------------|
    Am
E|--5--5--5--5--|--5--5--5--5--|
B|--5--5--5--5--|--5--5--5--5--|
G|--5--5--5--5--|--5--5--5--5--|
D|--7--7--7--7--|--7--7--7--7--|
A|--------------|--------------|
e|--------------|--------------|

There is a distinct strumming pattern here, so listen carefully.
Some of the notes almost sound muted, bet they still are audiable,
so don't let go of the strings at any point.  You can hear the strum
pattern individually at 3:17 for one bar- so treat yourself.
When Sam sings "one..two..three", it goes into some kind of bridge
or alternate verse.
    Dm
E|--5--------5--|
B|--6--------6--|
G|--7--------7--|    On both guitars
D|--7--------7--|
A|--x--------x--|
e|--x--------x--|

Same chords but lead guitar changes slightly.
These notes are all safe to play...

E|--5--8--10--12----------|
B|------------------------|
G|------------------------|
D|------------------------|
A|------------------------|
e|------------------------|
It is barely decipherable- I play this, picking at the same rhythm as the rhythm guitar.

E|-8-5-8-5-8-5-8--8-5-|-8-5-8-5-8-5-8--8-10-|
B|--------------------|---------------------|
G|--------------------|---------------------|
D|--------------------|---------------------|
A|--------------------|---------------------|
e|--------------------|---------------------|

E|-12-10-12-10-12-10-12--12-10-|-12-10-12-10-12-10-12--12-10-|
B|-----------------------------|-----------------------------|
G|-----------------------------|-----------------------------|
D|-----------------------------|-----------------------------|
A|-----------------------------|-----------------------------|
e|-----------------------------|-----------------------------|

It slips back into the verse after 8 bars of this.
"But each night"
Guitar 1 (Lead)
Riff
    Dm
E|------------------------|------------------------|
B|--6-5------6-5----------|--6-5------6-5----------|
G|------7--5-----7-5-5-5--|------7--5-----7-5-5-5--|
D|------------------------|------------------------|
A|------------------------|------------------------|
e|------------------------|------------------------|


    Am
E|------------------------|------------------------|
B|------------------------|------------------------|
G|----5-5---5-5----5-5----|----5-5---5-5---5-7-----|		\_Played Twice
D|--7-----7------7--------|--7-----7-----7---------|
A|------------------------|------------------------|
e|------------------------|------------------------|

Guitar 2 (Rhythm)
Chords

    Dm
E|--5--5--5--5--|--5--5--5--5--|--5--5--5--5--|--5--5--5--5--|
B|--6--6--6--6--|--6--6--6--6--|--5--5--5--5--|--5--5--5--5--|
G|--7--7--7--7--|--7--7--7--7--|--5--5--5--5--|--5--5--5--5--|	X2
D|--7--7--7--7--|--7--7--7--7--|--7--7--7--7--|--7--7--7--7--|
A|--------------|--------------|--------------|--------------|
e|--------------|--------------|--------------|--------------|

"This is a concept"
At this point it sounds more melodic so move your pick-up to the middle.

Guitar 1 (Lead)

E|-----------------------------------------|
B|-----------------------------------------|
G|-----------------------------------------|
D|--7-5--7-5--7-5--7-5--7-5--7-5--7-5--7-5-|
A|-----------------------------------------|
e|-----------------------------------------|

   "this is a concept, this is a bra-ce-let"
   "this is-n't no inter-vention"

E|-----------------------------------------|
B|-----------------------------------------|
G|-----------------------------------------|
D|--7-5--7-5--7-5--7-5--7-5--8-8-8-8-8-8-8-|
A|-----------------------------------------|
e|-----------------------------------------|

   "this is a concept, this is a bra-ce-let"
   "this isn't no intervention

E|8--5---------8--5--------8--5--------10--5-------|
B|-----8-6-5--------8-6-5-------8-6-5--------8-6-5-|
G|-------------------------------------------------| This could well be
D|-------------------------------------------------| on the old synthesiser
A|-------------------------------------------------|
e|-------------------------------------------------|

   "this isn't you yet"
    etc.

Guitar 2
Chords
       Dm
 "This is a concept, this is a bra-ce-let"
       Am
 "This is-n't no inter-vention"

       Dm
 "This is a concept, this is a bra-ce-let"
       Am             Bb
 "This isn't no inter-vention"

             Dm
 "This isn't you yet"
			      Am         Bb
 "What you thought was such a conquest"

                  Dm
 "Your hair is so pretty and red"
		    Am              Bb
 "Baby, baby you're really the-    best"


Next Bit

Guitar 1

E|-------------------|-------------------|
B|-------------------|-------------------|
G|-------------------|-------------------|
D|-------------------|-------------------|  X2
A|--5-5-5-5-5-5-5-5--|--5-5-5-5-5-5-5-5--|
e|-------------------|-------------------|

E|-------------------|-------------------|
B|-------------------|-------------------|
G|-------------------|-------------------|
D|-------------------|-------------------|
A|--4/5-5-5-5-5-5-5--|--5-5-5-5-5-5-5-5--|
e|-------------------|-------------------|

Guitar 2

    Dm
E|--5--5--5--5--|--5--5--5--5--|
B|--6--6--6--6--|--6--6--6--6--|
G|--7--7--7--7--|--7--7--7--7--|
D|--------------|--------------|
A|--------------|--------------|
e|--------------|--------------|

E|--5--5--5--5--|--5--5--8--5--|
B|--6--6--6--6--|--6--6--8--6--|
G|--7--7--7--7--|--7--7--7--7--|
D|--------------|--------------|
A|--------------|--------------|
e|--------------|--------------|

 "can I get there this way"
 "I think so"

Bridge or ALternate Verse

Guitar 2 keeps playing same chords ^

Guitar 1
E|-8-5-8-5-8-5-8--8-5-|-8-5-8-5-8-5-8--8-10-|
B|--------------------|---------------------|
G|--------------------|---------------------|
D|--------------------|---------------------|
A|--------------------|---------------------|
e|--------------------|---------------------|

E|-12-10-12-10-12-10-12--12-10-|-12-10-12-10-12-10-12--12-10-|
B|-----------------------------|-----------------------------|
G|-----------------------------|-----------------------------|
D|-----------------------------|-----------------------------|
A|-----------------------------|-----------------------------|
e|-----------------------------|-----------------------------|

"We should take a trip now to see new places"
"I'm sick of this town"
"I see my face has changed"

Then awesome instrumental bridge.

Guitar 1

    Dm
E|--5--------5--|
B|--6--------6--|
G|--7--------7--|
D|--7--------7--|
A|--x--------x--|
e|--x--------x--|

Guitar 2
Wait one bar, then:

    Dm
E|--5--5--5--5--|--5--5--5--5--|
B|--6--6--6--6--|--6--6--6--6--|
G|--7--7--7--7--|--7--7--7--7--|  For 10 bars
D|--7--7--7--7--|--7--7--7--7--|
A|--------------|--------------|
e|--------------|--------------|

Then
    Dm
E|--5--5--5--5--|--5--5--8--5--|
B|--6--6--6--6--|--6--6--8--6--|
G|--7--7--7--7--|--7--7--7--7--|
D|--------------|--------------|
A|--------------|--------------|
e|--------------|--------------|

Guitar 1

Michael joins in with

E|----------------|
B|--5-6-----5-6---|
G|----------------|
D|----------------|
A|----------------|
e|----------------|

"Say hello..."

Last Note
E|-------|
B|--5----|
G|-------|

Right, sorry that was long.
Corrections, comments etc. to Barca_rocks@hotmail.com
Thanks.  Barca.

Bb     Dm     Am

E|--6--|--5--|--5--|
B|--8--|--6--|--5--|
G|--8--|--7--|--5--|
D|--7--|--7--|--7--|
A|--6--|--5--|--7--|
e|--6--|--5--|--5--|

Band: Interpol
Song: Hands Away
Album: Turn On The Bright Lights
Tuning: Standard => EADGBe
Notes: VERSION 1

Main Riff (Try Finger-Picking)
|-------|    |-------|              |-------|    |-------|  |-------|
|----1--|    |-------|              |-------|    |----0--|  |----1--|
|-------| x8 |----0--| x4           |-------|    |-------|  |-------|
|-------|    |-------|(x8 1st time) |----3--| x4 |-------|  |-------| x3
|--0----|    |-------|              |--5----|    |--0----|  |--0----|
|-------|    |--0----|              |-------|    |-------|  |-------|

"Oh what happened?"
|-------|    |---------------------------------------------------------|
|----1--|    |-----0----0---3---3---3---3---------1---0--------0---1---|
|-------| x4 |---------------------------------2-------------2---------|
|-------|    |-------------3---3---3---3----3----3---3---3-------------|
|--0----|    |--0----0------------------------------------------0---0--|
|-------|    |---------------------------------------------------------|

|------------------------------------------|
|------------------------------------------|
|------------------------------------------|
|------------------------------------(17)--|
|------10-//----------8-//----13-//--------|
|--12---------(11)-10------15--------------|

When synths start:
|-----------------------|
|-----------------------|
|-----------------------|
|--12-//--10-//--17-//--|
|--10-//---8-//--13-//--|
|--12-//--10-//--15-//--|

Ending:
|------------------------------------------------------------------0~~~--|
|----------------------3---3---3---3--------1---0------0--1--1--1--1~~~--|
|-------------------------------------2------------2---------------2~~~--|
|----------------0--3---3---3---3---3---3-3---3--3-----------------2~~~--|
|------13-//-----------------------------------------0--0--0--0----0~~~--|
|--15-------15-----------------------------------------------------------|

Guitar 2
|--(0)---(0)---(0)---(0)---(0)--|
|---5-----5-----5-----5-----5---|
|-------------------------------| throughout entire song
|-------------------------------|
|-------------------------------|
|-------------------------------|


Band: Interpol
Song: Hands Away
Album: Turn On The Bright Lights
Tuning: Standard => EADGBe
Notes: VERSION 2
Based on live video @ Koln

intro

e------------------------------------------------------------|
B---1---------------------------------------0----1-----------|
G------*8--------0-------*8----------*4----------------------|
D--------------------------------3---------------------------|
A-0----------------------------5----------0----0-------------|
E--------------0---------------------------------------------|

singing starts

e------------------------------------------------------------|
B---1---------------------------------------0----1-----------|
G------*8--------0-------*4----------*4----------------------|
D--------------------------------3---------------------------|
A-0----------------------------5----------0----0-------------|
E--------------0---------------------------------------------|

twice > see lyrics


e-------------------------------------------------------------|
B---1---------0----0----3---3---3---3-------1---0-------0---1-|
G------*8-------------------------------2-----------2---------|
D---------------------3---3---3---3---3---3---3---3---3---3---|
A-0---------0----0--------------------------------------------|
E-------------------------------------------------------------|


x2

violin synth


e------------------------------------------------------------|
B---1--------------------------------------------------------|
G------*8-------------*8-------------*4--------------*8------|
D---------------5-------------3---------------10-------------|
A-0----------7--------------5--------------12----------------|
E------------------------------------------------------------|


e------------------------------------------------------------|
B------------------------------------------------------------|
G----------------*8------------------*4--------------*8------|
D----------5-----------------3-----------/----10-------------|
A--------7-----------7--6--5-------------/-12----------------|
E------------------------------------------------------------|

this is this little difference which starts @ 1min14sec

e-----------------------|
B-----------------------|
G---------------12---*8-|
D----------10-----------|
A--------12---12--------|
E-----------------------|


chords played with slight distortion + reverb


e------------------------------------------------------------|
B------------------------------------------------------------|
G------------7------5------12--------------------------------|
D------------5------3------10--------------------------------|
A------------7------5------12--------------------------------|
E------------------------------------------------------------|

with reverb singing

until singing finishes


e------------------------------------------------------------|
B------------------------------------------------------------|
G----------------*8------------------*4--------------*8------|
D----------5-----------------3-----------/----10-------------|
A--------7-----------7--6--5-------------/-12----------------|
E------------------------------------------------------------|

outro

e--------------------------------------------0---------------|
B----3---3---3---3-------1---0-------------1-----------------|
G--------------------2-----------2-------2-------------------|
D--3---3---3---3---3---3---3---3-------2---------------------|
A------------------------------------0-----------------------|
E------------------------------------------------------------|


Band: Interpol
Song: Obstacle 2
Album: Turn On The Bright Lights
Tuning: Standard => EADGBe
Notes: /

Guitar 1

main riff
-----------------------------------------------------|
-----------------------------------------------------|
---4-4-4-4-4-4-4-4-4-4-4-4-5-4-5-4-------------------|
---5-5-5-5-5-5-5-5-0-0-0-0-0-0-0-0-------------------|
---7-7-7-7-0-0-0-0-5-5-5-5-5-5-5-5-------------------|
-----------------------------------------------------|

"you can fix me up girl"
-13--//------12--//----------------------------------|
-15--//------13--//----------------------------------|
-----------------------------------------------------|
-----------------------------------------------------|
-----------------------------------------------------|
-----------------------------------------------------|

main riff

"in my mind"
-----------------------------------------------------|
------------8---//-----------------------------------|
--9---//----8---//-----------------------------------|
------------10--//-----------------------------------|
--7---//----10--//-----------------------------------|
-----------------------------------------------------|

main riff
"in my mind"
-----------------10--//--10--//-------------------------|
-----------------10--//--12--//-------------------------|
--10--//--10--//---10--//--10--//-----------------------|
---------9--//---12--//--10--//-------------------------|
--8--//--8--//------------------------------------------|
--------------------------------------------------------|

---5--//--5--//--5--//--5--//------------------------|
---6--//--6--//--6--//--6--//--------ad  lib---------|
---5--//--4--//--7--//--5--//------------------------|
-----------------------------------------------------|
-----------------------------------------------------|
-----------------------------------------------------|

guit 2

before "I feel like love"
-----------------------------------------------------|
-----------------------------------------------------|
-12-12-10-10-9---9---17-16-17-16-19---199-19--19-19--|
-----------------------------------------------------|
-10-10-8--8--7---7---15-14-15-14-17---177-17--17-17--|
-----------------------------------------------------|

----12-------12--------------------------------------|
----12-------12--------15----------------------------|
----12-------12-----------15-------------------------|
-----------------------------------------------------|
-----------------------------------------------------|
-----------------------------------------------------|

"you can fix me up girl"
-----------------------------------------------------------------------------|
--7-7-7-9-9-9-7-7-7-9-9-9-7-9-7---8-8-8--10-10-10-8-8-8-10-10-10-8-10-8------|
--9-9-9-9-9-9-9-9-9-9-9-9-9-9-9---9-9-9--9--9--9--9-9-9-9--9--9--9-9--9------|
-----------------------------------------------------------------------------|
-----------------------------------------------------------------------------|
-----------------------------------------------------------------------------|

"I'll stand by all this drinking"
-----------------------------------------------------|
-----------------------------------------------------|
--16-//--14-//-16-//-17-//-16-//-14-//-112-//-11-//--|
-----------------------------------------------------|
--14-//--12-//-14-//-15-//-14-//-12-//-110-//-9--//--|
-----------------------------------------------------|

"in my mind"
-----------------------------------------------------|
------------8---//-----------------------------------|
--9---//----8---//-----------------------------------|
------------10--//-----------------------------------|
--7---//----10--//-----------------------------------|
-----------------------------------------------------|

------------------------------12---------------------|
-----------------12-----12-13-----13-12--------------|
--16------16-----12----------------------------------|
-----------------------------------------------------|
--14------14-----------------------------------------|
-----------------------------------------------------|

"you can fix me up girl"
"I'll stand by all this drinking"
"in my mind"
-----------------10--//--10--//----------------------|
-----------------10--//--12--//----------------------|
--10--//-10-//---10--//--10--//----------------------|
---------9--//---12--//--10--//----------------------|
--8--//--8--//---------------------------------------|
-----------------------------------------------------|

---5--//--5--//--5--//--5--//------------------------|
---6--//--6--//--6--//--6--//------------------------|
---5--//--4--//--7--//--5--//------------------------|
-----------------------------------------------------|
-----------------------------------------------------|
-----------------------------------------------------|

--------------------------------------------------------------------|
------6-------6-------6-------6-------6--------6-------6-------6----|
--5-5---5-5-5---5-4-4---4-4-4---4-7-7----7-7-7---7-5-5---5-5-5---5--|
--------------------------------------------------------------------|
--------------------------------------------------------------------|
--------------------------------------------------------------------|

Band: Interpol
Song: Stella Was A Diver And She Was Always Down
Album: Turn On The Bright Lights
Tuning: Standard => EADGBe
Notes: /

Guitar 1
e|--5--//----5--//----5--//--|
B|--5--//----5--//----5--//--|
G|--5--//----5--//----5--//--|
D|--7--//----7--//----7--//--|
A|--8--//----5--//----0--//--|
E|---------------------------|
"...game"         "days     daze     days" x3    "days daze days"
e|--5--/-/-/-/------5--//----5--//----5--///-------5--//--|
B|--5--/-/-/-/------5--//----5--//----5--///-------5--//--|
G|--5--/-/-/-/------5--//----5--//----5--///-------5--//--|
D|--7--/-/-/-/------7--//----7--//----7--///-------7--//--|
A|--8--/-/-/-/------5--//----0--//----5--///-------5--//--|
E|--------------------------------------------------------|
Pre-Chorus
"She was alright..."
e|----------7-7-5-5-----------------------------------|
B|--5-5-6-6-6-6-6-6-6-6-6-6-6-6-6-6-6-6-6--6-6-6-6-6--|
G|--5-5-5-5-5-5-5-5-5-5-5-5-5-5-5-5-5-5-5--5-5-5-5-5--| x4
D|--7-7-7-7-7-7-7-7-7-7-7-7-7-7-7-7-7-7-7--7-7-7-7-7--|
A|----------------------------------------------------|
E|----------------------------------------------------|
"Airtight..."
e|--5-5-5-5-5-5-5-5--|
B|--5-5-5-5-5-5-5-5--|
G|--5-5-5-5-5-5-5-5--|
D|--7-7-7-7-7-7-7-7--|
A|-------------------|
E|-------------------|
Chorus
"She broke away, broke away"
e|-------------------------|
B|-------------------------|
G|-------------------------|
D|--7--//---7--//---7--//--| x4
A|--5--//---5--//---8--//--|
E|----------6--------------|
1st time don't play the 1st chord
3rd time play the 1st chord twice

Verse
Pre-chorus
Chorus

Outro
e|---------------------------------|
B|--5---5---5---5---5---5---5---5--|
G|--7---7---7---7---7---7---7---7--|
D|---------------------------------|
A|---------------------------------|
E|---------------------------------|
Until the end

Guitar 2
Main Riff
e|---------------------------------------------------|
B|---------------------------------------------------|
G|--------14----------14----------14----------14-----|
D|--15-15----15-15-15----15-15-15----15-14-14----14--|
A|---------------------------------------------------|
E|---------------------------------------------------|

e|---------------------------------------------------|
B|--------13----------13----------13----------13-----|
G|---------------------------------------------------|
D|--15-15----15-15-15----15-15-15----15-14-14----14--|
A|---------------------------------------------------|
E|---------------------------------------------------|
      slide down
e|--13-13-13-13-13-----------------------------------|
B|--13-13-13-13-13-----------------------------------|
G|--14-14-14-14-14-----------------------------------| x3
D|--15-15-15-15-15----------12-12-12-14-14-14-14-14--|
A|---------------------------------------------------|
E|---------------------------------------------------|

e|-----------------------------|
B|-----------------------------|
G|---------7--9--10-12--14-//--|
D|--15-------------------------|
A|---------5--7--8--10--12-//--|
E|-----------------------------|

e|--------------------------------------|
B|--10--//-12--//-13--//-13--//-13--//--|
G|---9--//--9--//--9--//-10--//--9--//--|
D|---7--//--9--//-10--//-10--//-10--//--|
A|--------------------------------------|
E|--------------------------------------|

"Airtight..."
e|---------------------------|
B|--13-13-13-13-13-13-13-13--|
G|--10-10-10--9--9--9--9--9--|
D|--10-10-10-10-10-10-10-10--|
A|---------------------------|
E|---------------------------|

Chorus
"She broke away, broke away"
e|-------------------------|
B|-------------------------|
G|-------------------------|
D|--7--//---7--//---7--//--| x4
A|--5--//---5--//---8--//--|
E|----------6--------------|
1st time don't play the 1st chord
3rd time play the 1st chord twice

Verse
Pre-chorus
Chorus

Outro
e|--------------------------------------------|
B|--------------------------------------------|
G|--5--7---5--7---9--9-9-9-7-7-7-7-5~~~-7~~~--|
D|--------------------------------------------|
A|--------------------------------------------|
E|--------------------------------------------|
Until the end

Last time
e|--------------------------------------------------|
B|--------------------------------------6~~~--6~~~--|
G|--5--7---5--7---9--9-9-9-7-7-7-7-5~~~-------7~~~--|
D|--------------------------------------------------|
A|--------------------------------------------------|
E|--------------------------------------------------|

Band: Interpol
Song: Roland
Album: Turn On The Bright Lights
Tuning: Standard => EADGBe
Notes: Hi. This tab is for only one guitar. I Hope it'll help you and that's
why I explain all. I think this tab can't be better (I think it's
100% correct) but corrections are welcome. If you're another
"Interpol Fan", contact me. This tab is very good to be my first tab.
Enjoy what you do. If not, there's no sense in doing it.
See ya.

>=let it ring

e[----------------------|
b[----------------------|
g[----------------------|
D[----------------------|
A[--7-7-7-7-7-7-7-7-7>--|
E[-8-8-8-8-8-8-8-8--0>--|

e[------------------------------|
b[------------------------------|
g[------------------------------|
D[------------------------------|
A[--7-7-7-7-7-7-7-7-7>----------|
E[-8-8-8-8-8-8-8-8--0>--7-7-7-7-|

e[---------------------------------------------|
b[---------------------------------------------|
g[---------------------------------------------|
D[-9-10-9-10-9-10-9-10-9-10-9-10-9-10-9-10-9>--|
A[---------------------------------------------|
E[---------------------------------------------|

e[-------------------------------------------------------------|
b[-------------------------------------------------------------|
g[---------------------------------------------1010101010101010|
D[-9-10-9-10-9-10-9-10-9-10-9-10-9-10-9-10-9>---9-9-9-9-9-9-9-9|
A[-------------------------------------------------------------|
E[-------------------------------------------------------------|

"My best friend's a butcher, he has sixteen knives"
e[-------------------------------------------------------------|
b[-------------------------------------------------------------|
g[-------------------------------------------------------------|
D[-9-10-9-10-9-10-9-10-9-10-9-10-9-10-9-10-9-9-10-9-7-12-10-9--|
A[-------------------------------------------------------------|
E[-------------------------------------------------------------|

"He carries them all over the town at least he tries,Oh look it stopped snowing"
e[--------------------------------------------------------------------|
b[--------------------------------------------------------------------|
g[----------------------------------------------------1010101010101010|
D[-9-10-9-10-9-10-9-10-9-10-9-10-9-10-9-10-9-9-10-9---9-9-9-9-9-9-9-9-|
A[--------------------------------------------------------------------|
E[--------------------------------------------------------------------|

"My best friend's from Poland and, um, he has a beard."
e[-------------------------------------------------------------|
b[-------------------------------------------------------------|
g[-------------------------------------------------------------|
D[-9-10-9-10-9-10-9-10-9-10-9-10-9-10-9-10-9-9-10-9-7-12-10-9--|
A[-------------------------------------------------------------|
E[-------------------------------------------------------------|


"But they caught him with his case in that public place, That is what we had feared"
e[-------------------------------------------------------------------------|
b[-------------------------------------------------------------------------|
g[-------------------------------------------------------------------------|
D[-9-10-9-10-9-10-9-10-9-10-9-10-9-10-9-10-9-10-9-10-9-10-9-10-9-10-9-10-9-|
A[-------------------------------------------------------------------------|
E[-------------------------------------------------------------------------|
He severed segments secretly you like that
e[-------------------------------------------------------------|
b[-------------------------------------------------------------|
g[-------------------------------------------------------------|
D[-5-5-5-5-5-5-5-5-4-4-4-4-4-4-4-4-------0-0-----------0-0-----|
A[-------------------------------------------2-2-----------2-2-|
E[---------------------------------0-0-0---------0-0-0---------|
He always took the time to speak with me
I liked him for that.
e[-------------------------------------------------------------|
b[-------------------------------------------------------------|
g[-------------------------------------------------------------|
D[-5-5-5-5-5-5-5-5-4-4-4-4-4-4-4-4-------0-0-----------0-0-----|
A[-------------------------------------------2-2-----------2-2-|
E[---------------------------------0-0-0---------0-0-0---------|
He severed segments so secretly you like that
e[-------------------------------------------------------------|
b[-------------------------------------------------------------|
g[-------------------------------------------------------------|
D[-5-5-5-5-5-5-5-5-4-4-4-4-4-4-4-4-------0-0-----------0-0-----|
A[-------------------------------------------2-2-----------2-2-|
E[---------------------------------0-0-0---------0-0-0---------|
He always took the time... ...He always took the time
e[---------------------------|
b[---------------------------|
g[---------------------------|
D[-8-9-8--9-8-99-8-9-8-9-8>--|
A[---------------------------|
E[---------------------------|

e[---------------------------|
b[---------------------------|
g[---------------------------|
D[-8-9-8--9-8-99-8-9-8-9-8>--|
A[---------------------------|
E[---------------------------|

e[--------------------------------------------------|
b[--------------------------------------------------|
g[---------------------------------1010101010101010-|
D[-8-9-8--9-8-99-8-9--8-9-12-9-8-9--9-9-9-9-9-9-9-9-|
A[--------------------------------------------------|
E[--------------------------------------------------|
"My best friend's a butcher, he has sixteen knives"
e[-------------------------------------------------------------|
b[-------------------------------------------------------------|
g[-------------------------------------------------------------|
D[-9-10-9-10-9-10-9-10-9-10-9-10-9-10-9-10-9-9-10-9-7-12-10-9--|
A[-------------------------------------------------------------|
E[-------------------------------------------------------------|
"He carries them all over the town at least he tries,Oh look it stopped snowing"
e[--------------------------------------------------------------------|
b[--------------------------------------------------------------------|
g[----------------------------------------------------1010101010101010|
D[-9-10-9-10-9-10-9-10-9-10-9-10-9-10-9-10-9-9-10-9---9-9-9-9-9-9-9-9-|
A[--------------------------------------------------------------------|
E[--------------------------------------------------------------------|

"My best friend's from Poland and, um, he has a beard."
e[-------------------------------------------------------------|
b[-------------------------------------------------------------|
g[-------------------------------------------------------------|
D[-9-10-9-10-9-10-9-10-9-10-9-10-9-10-9-10-9-9-10-9-7-12-10-9--|
A[-------------------------------------------------------------|
E[-------------------------------------------------------------|

"But they caught him with his case in that public place, That is what we had feared"
e[-------------------------------------------------------------------------|
b[-------------------------------------------------------------------------|
g[-------------------------------------------------------------------------|
D[-9-10-9-10-9-10-9-10-9-10-9-10-9-10-9-10-9-10-9-10-9-10-9-10-9-10-9-10-9-|
A[-------------------------------------------------------------------------|
E[-------------------------------------------------------------------------|

He severed segments secretly you like that
e[-------------------------------------------------------------|
b[-------------------------------------------------------------|
g[-------------------------------------------------------------|
D[-5-5-5-5-5-5-5-5-4-4-4-4-4-4-4-4-------0-0-----------0-0-----|
A[-------------------------------------------2-2-----------2-2-|
E[---------------------------------0-0-0---------0-0-0---------|

He always took the time to speak with me
I liked him for that.
e[-------------------------------------------------------------|
b[-------------------------------------------------------------|
g[-------------------------------------------------------------|
D[-5-5-5-5-5-5-5-5-4-4-4-4-4-4-4-4-------0-0-----------0-0-----|
A[-------------------------------------------2-2-----------2-2-|
E[---------------------------------0-0-0---------0-0-0---------|

He severed segments so secretly you like that
e[-------------------------------------------------------------|
b[-------------------------------------------------------------|
g[-------------------------------------------------------------|
D[-5-5-5-5-5-5-5-5-4-4-4-4-4-4-4-4-------0-0-----------0-0-----|
A[-------------------------------------------2-2-----------2-2-|
E[---------------------------------0-0-0---------0-0-0---------|

He was growing on me... ...
e[---\     /---\     /---\      /---\-|
b[---|     |---|     |---|      |-----|
g[---|     |---|     |---|      |-----|
D[-5-|(x8) |-4-|(x8) |-7-|(x12) |-9---|(x4)
A[---|     |---|     |---|      |-----|
E[---/     \---/     \---/      \-----|

... ...He was growing on me.
e[---\    /---\    /---\     /----\-|
b[---|    |---|    |---|     |------|
g[---|    |---|    |---|     |------|
D[-5-|(x8)|-7-|(x8)|-9-|(x12)|-12---|(x4)
A[---|    |---|    |---|     |------|
E[---/    \---/    \---/     \------|

e[----\     /----\     /----\     /----\-----|
b[-17-|     |-19-|     |-20-|     |-19-------|
g[----|     |----|     |----|     |----------|
D[----|(x16)|----|(x16)|----|(x16)|----|(x16-|
A[----|     |----|     |----|     |----------|
E[----/     \----/     \----/     \----------|


e[-------------19-19-19-19-------------20-20-20-20-| /----\-----|
b[-17-17-17-17-------------17-17-17-17-------------| |-17-------|
g[-------------------------------------------------| |----------|
D[-------------------------------------------------| |----|(x16-|
A[-------------------------------------------------| |----------|
E[-------------------------------------------------| \----------|

e[-------------19-19-19-19-------------20-20-20-20-| /----\-----|
b[-17-17-17-17-------------17-17-17-17-------------| |-17-------|
g[-------------------------------------------------| |----------|
D[-------------------------------------------------| |----|(x16-|
A[-------------------------------------------------| |----------|
E[-------------------------------------------------| \----------|

e[-------------------------------------------------|
b[-13-13-13-13-13-13-13-13-12-12-12-15-15-15-15-15-|
g[-------------------------------------------------|
D[-------------------------------------------------|
A[-------------------------------------------------|
E[-------------------------------------------------|

-------------------------------------------------|
-------------------------------------13-12-13-12-|
-12-12-12-12-12-12-12-12-11-11-11-11-------------|
-------------------------------------------------|
-------------------------------------------------|
-------------------------------------------------|

e[-------------------------------------------------|
b[-13-13-13-13-13-13-13-13-12-12-12-15-15-15-15-15-|
g[-------------------------------------------------|
D[-------------------------------------------------|
A[-------------------------------------------------|
E[-------------------------------------------------|

-------------------------------------------------|
-------------------------------------13-12-13-12-|
-12-12-12-12-12-12-12-12-11-11-11-11-------------|
-------------------------------------------------|
-------------------------------------------------|
-------------------------------------------------|

e[-------------------------------------------------|
b[-13-13-13-13-13-13-13-13-12-12-12-15-15-15-15-15-|
g[-------------------------------------------------|
D[-------------------------------------------------|
A[-------------------------------------------------|
E[-------------------------------------------------|

-------------------------------------------------|
-------------------------------------13-12-13-12-|
-12-12-12-12-12-12-12-12-11-11-11-11-------------|
-------------------------------------------------|
-------------------------------------------------|
-------------------------------------------------|

e[-----------------------------------------------------|
b[-13-13-13-13-13-13-13-13-12-12-12-15-15-15-15-15-----|
g[-----------------------------------------------------|
D[-----------------------------------------------------|
A[-----------------------------------------------------|
E[-----------------------------------------------------|
-------------------------------------------------------|
-------------------------------------13-12-13-12-13>---|
-12-12-12-12-12-12-12-12-11-11-11-11-------------------|
-------------------------------------------------------|
-------------------------------------------------------|
-------------------------------------------------------|

Band: Interpol
Song: The New
Album: Turn On The Bright Lights
Tuning: Standard => EADGBe
Notes: /

Guitar 1
"I wish I could live free..."
e|-----------------------------------|
B|-----------------------------------|
G|-----------------------------------|
D|-----------------------------------| 7x
A|--9-9-9-9-9-9-9-9-9-7-7-7-7-7-7-7--|
E|-----------------------------------|

"Baby, my heart's been breaking..."
e|----3-----3-----3-----3-----3-----3-----3-----3-----3-----3--------|
B|--5-----5-----5-----5-----5-----5-----5-----5-----5-----5-----5-0--|
G|------0-----0-----0-----0-----0-----0-----0-----0-----0-----0------|
D|-------------------------------------------------------------------|
A|-------------------------------------------------------------------|
E|-------------------------------------------------------------------|

"I gave a lot to you..."
e|------0-------0-------1-------1-----0-------0-------1-------1----|
B|----1---1---1---0---3---3---3-----1---1---1---1---3---3---3---3--|
G|--0-------0-------0-------4-----2-------2-------2-------2--------| 3x
D|-----------------------------------------------------------------|
A|-----------------------------------------------------------------|
E|-----------------------------------------------------------------|

e|------0-------0-------1-------1-----0-------0-------0-------0----|
B|----1---1---1---0---3---3---3-----1---1---1---1---1---1---1---1--|
G|--0-------0-------0-------4-----2-------2-------0-------0--------|
D|-----------------------------------------------------------------|
A|-----------------------------------------------------------------|
E|-----------------------------------------------------------------|

"I can't pretend"
e|-------------------------------------------------|
B|--5-//--3-//---0-0-0-0-0-0-0-0-0-0-0-0--0-0-0-0--|
G|--5-//--4-//---4-4-4-2-2-2-4-4-4-4-4-4--4-4-4-4--|
D|---------------------------------0-0-0--0-0-0-0--|
A|-------------------------------------------------|
E|-------------------------------------------------|

e|--------------------------------------------------|
B|--5-//---3-//---0-0-0-0-0-0-0-0-0-0-0-0--0-0-0-0--|
G|--5-//---4-//---2-2-2-5-5-5-4-4-4-4-4-4--4-4-4-4--|
D|----------------------------------0-0-0--0-0-0-0--|
A|--------------------------------------------------|
E|--------------------------------------------------|

e|--------------|
B|--------------|
G|--4-//--5-//--| 4x
D|--------------|
A|--------------|
E|--------------|

e|---------------|
B|---------------|
G|--4-//--3b(4)--| bend 1/2 step
D|---------------|
A|---------------|
E|---------------|

e|--------|
B|--0-//--|
G|--------|
D|--------|
A|--------|
E|--------|
Detune 1/2 step down & retune 1/2 step up while playing

e|-----------------------------------|
B|----------------------------3------|
G|--------------0-----4-4---4---4-2--|
D|------4-4-------3------------------|
A|----------0-0-----2-----2----------|
E|--2-2------------------------------|
                                       6x
e|-----------------------------------|
B|-----------------------------------|
G|--------------0-----4-4---2-0---0--|
D|------4-4-------3------------------|
A|----------0-0-----2-----2-----2----|
E|--2-2------------------------------|

e|-----------------------------------------|
B|-----------------------------------------|
G|-----------------------------------------|
D|-----------------------------------------| 2x
A|--14---9--12----7--10--9---5--7-7--9~~~--|
E|-------0---------------------------------|

e|--------------------------|
B|--15-//--14-14-14--17-//--|
G|--16-//--16-16-16--16-//--|
D|--------------------------|
A|--------------------------|
E|--------------------------|

e|----------------|
B|--14-//--15-//--|
G|--18-//--19-//--|
D|----------------|
A|----------------|
E|----------------|
                                      3x
e|---------------------------------|
B|--14-//--15-15-15--15-//--15-//--|
G|--15-//--16-16-16--12-//--11-//--|
D|---------------------------------|
A|---------------------------------|
E|---------------------------------|

e|----------------------|
B|--15-15-15-15--15-//--|
G|---------------12-//--|
D|--14-14-14-14---------|
A|----------------------|
E|----------------------|

Last Time
e|---------|
B|--14~~~--|
G|--11~~~--|
D|---------|
A|---------|
E|---------|

Guitar 2

"I wish I could live free"
e|------------------------------------------|
B|--6~~~--------6~~~-------6~~~-------------|
G|--7~~~--------5~~~-------7~~~-------7~~~--|
D|------------------------------------------| 7x
A|------------------------------------------|
E|------------------------------------------|

"Baby, my heart's been breaking"
e|----------------------------------5----8--|
B|-----------6------6-----6------6--5----8--|
G|--5~~~-----7------7-----7------7--5----0--|
D|------------------------------------------|
A|------------------------------------------|
E|------------------------------------------|
(each group of 2 notes is played at the beginning of a sentence)
"I can't pretend"
e|---------------------------------------------|
B|--6----6----6----6----6----6----6--6--6---6--|
G|--7----7----7----7----7----7----7--7--7---7--|
D|---------------------------------------------|
A|---------------------------------------------|
E|---------------------------------------------|
                                                 2x
e|---------------------------5----8--|
B|--6----6----6----6----6----5----8--|
G|--7----7----7----7----7----5----0--|
D|-----------------------------------|
A|-----------------------------------|
E|-----------------------------------|

e|-----------------------------------|
B|------6-------6-------6-------6----|
G|--7-7---7-7-7---7-7-7---7-7-7---7--|
D|-----------------------------------|
A|-----------------------------------|
E|-----------------------------------|
                                       6x
e|-----------------------------------|
B|------6-------6-------6-------5----|
G|--5-5---5-5-5---5-5-5---5-5-5---5--|
D|-----------------------------------|
A|-----------------------------------|
E|-----------------------------------|

e|--------|
B|--0-//--|
G|--------|
D|--------|
A|--------|
E|--------|
Detune 1/2 step down & retune 1/2 step up while playing

"You're looking alright tonight"
e|----------------|
B|--12-//--11-//--|
G|----------------|
D|----------------|
A|----------------|
E|----------------|

when drums restart
e|-----------------------|
B|-----------------------|
G|--14-//--14-//--14-//--|
D|--16-//--16-//--16-//--|
A|---------14-//---------|
E|-----------------------|

when drums restart
e|-------------------------------------------------|
B|-------------------------------------------------|
G|--16-//--11-//--14-//--9-//--12-//--11-//--7-//--| 2x
D|-------------------------------------------------|
A|--14-//---9-//--12-//--7-//--10-//---9-//--5-//--|
E|-------------------------------------------------|

e|---------------|
B|---------------|
G|--11-//--7~~~--|
D|---------------|
A|--9--//--5~~~--|
E|---------------|


i just make these a little clearer...


Band: Interpol
Song: Leif Erikson
Album: Turn On The Bright Lights
Tuning: Standard => EADGBe
Notes: VERSION 1
There isn't a whole lot of guitaring in this track, the synthesiser
keyboard fills out the song the most. The majority of the song is
moving from Dm to C. See below.

e|----------------------------------------------|
B|----------------------------------------------|
G|----------------------------------------------|
D|--7777777777777777-1010101010101010-99999999--|
A|--5555555555555555--7-7-7-7-7-7-7-7-77777777--|
E|----------------------------------------------|

Occasionaly this is heard:

e|---------------|
B|-66666666------|
G|-77777777------|
D|---------------|
A|---------------|
E|---------------|

Chorus

"The clock is set for 9 but you
know we're going to make it 8"

e|---------------------------|
B|--13-13-13-13-13-13-13-13--|
G|--14-14-14-14-14-14-14-14--|
D|---------------------------|
A|---------------------------|
E|---------------------------|

e|--15-15-15-15-15-15-15-15--|
B|--13-13-13-13-13-13-13-13--|
G|--14-14-14-14-14-14-14-14--|
D|---------------------------|
A|---------------------------|
E|---------------------------|

e|----------------------------------------|
B|--8-8-8-8-8-8-8-8-10-10-10-10-10-8-8-8--|
G|--9-9-9-9-9-9-9-9--9--9--9--9--9-9-9-9--|
D|----------------------------------------|
A|----------------------------------------|
E|----------------------------------------|

Bridge

"It's like learning a new language"

e|--1-1-1-0-0-0-0-0-0-0-0--|
B|--1-1-1-1-1-1-1-1-1-1-1--|
G|--2-2-2-0-0-0-0-0-0-0-0--|
D|--3-3-3-2-2-2-2-2-2-2-2--|
A|--3-3-3-3-3-3-3-3-3-3-3--|
E|-------------------------|

Other guitarist

e|---------------------------------------|
B|---------------------------------------|
G|--10-10-10-----------------------------|
D|----------10-10-10---------------------|
A|------------------8-8-8-8-8-8-8-8-8-8--|
E|---------------------------------------|

Outro

"She says brief things, her love's a pony"

e|---------------|-------------|
B|--13-15-13--12-|---10---12---|
G|---------------|-12---12--9--|
D|---------------|-------------|
A|---------------|-------------|
E|---------------|-------------|


e|------------|-------------|
B|----8--10---|---8-8---10--|
G|--10--10--7-|-10---10-----|
D|------------|-------------|
A|------------|-------------|
E|------------|-------------|

Barca_Rocks@hotmail.com for comments, requests etc.

Band: Interpol
Song: Leif Erikson
Album: Turn On The Bright Lights
Tuning: Standard => EADGBe
Notes: VERSION 2

Guitar 1

Intro/Verse
e|----------------------------------------------------------------------------|
B|----------------------------------------------------------------------------|
G|----------------------------------------------------------------------------|
D|--7-7-7-7-7-7-7-7-7-7-7-7-7-7-7-7-10-10--10-10-10-10-10-10-9-9-9-9-9-9-9-9--|
A|--5-5-5-5-5-5-5-5-5-5-5-5-5-5-5-5-7--7---7--7--7--7--7--7--7-7-7-7-7-7-7-7--|
E|----------------------------------------------------------------------------|
									x4
"She swears I'm a slave to the details..."
e|--------------------5-5-5-5-5-5-5-------------------------------------------|
B|--------------------6-6-6-6-6-6-6-------------------------------------------|
G|--------------------5-5-5-5-5-5-5-------------------------------------------|
D|--7-7-7-7-7-7-7-7-7-7-7-7-7-7-7-7-10-10--10-10-10-10-10-10-9-9-9-9-9-9-9-9--|
A|--5-5-5-5-5-5-5-5-5-5-5-5-5-5-5-5--7--7---7--7--7--7--7--7-7-7-7-7-7-7-7-7--|
E|----------------------------------------------------------------------------|
									x2

"The clock is set for nine..."
e|--------------------15-15-15-15-15-15-15-15-15-15--|
B|-----------13-13-13-13-13-13-13-13-13-13-13-13-13--|
G|--14-14-14-14-14-14-14-14-14-14-14-14-14-14-14-14--|
D|--12-12-12-12-12-12-12-12-12-12-12-12-12-12-12-12--|
A|---------------------------------------------------|
E|---------------------------------------------------|
                                                      x2

e|---------------------------------------------------|
B|---------------------------------------------------|
G|-----12-12----12----12-14-14-14-14-14-14-12--------|
D|--14-14-14-14-14-14-14-14-14-14-14-14-14-14-14-14--|
A|---------------------------------------------------|
E|---------------------------------------------------|


"She feels that my sentimental side"

Replay the 3 riffs 2 times each

"It's like learning a new language"
e|------------------------------------------------|
B|------------------------------------------------|
G|------------------------------------------------|
D|--7-7-7-7-10-10-10-10-10-10-10-10-10-10--10-10--|
A|--8-8-8-8--0--0--0--0--7--7--7--7--7--7---7--7--|
E|-----------------------8--8--8--8--8--8---8--8--|
To the end

Guitar 2:

"the clock is set for nine"
|---------------------------------------------------------------|
|---------------------------------------------------------------|
|-14--//---12-12-12-12-12-12-12-14-14-14-14-14-14-14-14-14------|
|-12--//---14-14-14-14-14-14-14-14-14-14-14-14-14-14-14-14------|
|---------------------------------------------------------------| x2
|---------------------------------------------------------------|

"she feels that my sentimental side"
       H       H       H       H          H          H        H       H
|-------------------------------------------------------------------------|
|-------------------------------------------------------------------------|
|------7-------7-------7-------7----------7----------7--------7-------7---|
|--7-7---7-7-7---7-7-7---7-7-7---7-10-10---10-10-10---10-9-9---9-9-9---9--|
|-------------------------------------------------------------------------|
|-------------------------------------------------------------------------|
(H=natural harmonic)

"the clock is set for nine"

"it's like learning a new language"
|---------------------------------------------------|
|---------------------------------------------------|
|--10-10-10-10-9--9--9--9--9--9--9--9--9--9--9--9---|
|--10-10-10-10-10-10-10-10-10-10-10-10-10-10-10-10--|
|---------------------------------------------------|
|---------------------------------------------------|

|-------------------------------------------------------------------|
|-------------------------------------------------------------------|
|--17-19-17--16--12-14--12-16---------12----14--------12--12----14--|
|------------------------------14--15----15-----12--15-------15-----| x4
|-------------------------------------------------------------------|
|-------------------------------------------------------------------|


yeah i kinda forgot to put in the guitar 2 section... oh well now it's here


NOTE: I (gloaming, vincent herremans) just complicated the tabs on this site,
without writing the tabber's name (excuses for that), this is just made fo
making it easyer for all of you!
Добавлено: 09.09.2013
Другие материалы по этой песне:
  • Аккорды и текст

Страница создана 09.09.2013
http://primanota.ru/interpol/turn-on-the-bright-lights-chords.htm
Привет, Гость.
Предлагаем пройти революционный курс по гитаре.
Подарок от PrimaNota.Ru, забирай!