PrimaNota.ru - самый крупный в мире бесплатный архив песенных текстов, аккордов, табулатур и нот


Interpol - 5 Get The Girls - бас-таба, видео

Регистрация Запомнить меня
Войти через:  Facebook Google Twitter Vk Yandex Mail.ru

Interpol - 5 Get The Girls - бас-таба, видео

Печатать
Просмотров: 162
----------------------------------------------------------------------------
			     5 (get The Girls) - Interpol


Tabbed By : Doooooooooo


Tuning: E,A,D,G (although you could do a drop d like carlos does, but i do it with standered)


                    (Elevens)(fourteen)

G|---------8-8-x-x-x-88/1111/14---------------------------------------------|
D|--------------------------------------------------------------------------|
A|--10-10-------------------------------------------------------------------|
E|--------------------------------------------------------------------------|

G|----------------------------------------------------|
D|----------------------------------------------------|
A|----------------8-8---------------------------------|
E|-33-3-3-33-333-3----10-10-11-11-1111-8888/11111111--|                                (elevens)

G|--------------------------------------------------------------------------|
D|------5------5-----------------------13------10-10--13--13----------------|
A|------------------8-8-----------------------------------------------------|
E|-33-3---33-33-333-----10-10-11-11-11----11--8--8--11--11------------------|


Will have Updated version soon
Добавлено: 27.09.2013
Другие материалы по этой песне:
  • Аккорды и текст

Страница создана 27.09.2013
http://primanota.ru/interpol/5-get-the-girls-chords.htm
Привет, Гость.
Предлагаем пройти революционный курс по гитаре.
Подарок от PrimaNota.Ru, забирай!