PrimaNota.ru - самый крупный в мире бесплатный архив песенных текстов, аккордов, табулатур и нот


Interpol - My Desire - таба, видео

Регистрация Запомнить меня
Войти через:  Facebook Google Twitter Vk Yandex Mail.ru

Interpol - My Desire - таба, видео

Печатать
Просмотров: 664
Уроки эстрадного вокала в Санкт-Петербурге
-------------------------------------------------------------------------------
                             My Desire - Interpol
-------------------------------------------------------------------------------
Tabbed by: Kenny G

E-mail: kg8159@gmail.com

Tuning: Standard

e|-------------|
B|-0-2h3p2h3p2-|
G|-------------|                         
D|-------------| x4
A|-------------|
E|-------------|

e|-------------|
B|---2h3p2h3p2-|
G|-2-----------|
D|-------------| x4
A|-------------|
E|-------------|

e|---------------------------------------------------------------------------|
B|---------2-----------2-----------2-----------------------------------------|
G|---2h4p2-------2h4p2-------2h4p2------2h4p2--------------------------------|
D|-4-----------4-----------4----------4-------0------------------------------|
A|---------------------------------------------------------------------------|
E|---------------------------------------------------------------------------|

Obviously, this is done very fast.  
Just hammer on as much as you can to get that intro down.
That's all, thanks let me know what you think.
************************************
| h   hammer-on
| p   pull-off
| ~   vibrato
************************************
Добавлено: 15.11.2014
Другие материалы по этой песне:
  • Аккорды и текст

Страница создана 15.11.2014
http://primanota.ru/interpol/my-desire-chords.htm
Привет, Гость.
Предлагаем пройти революционный курс по гитаре.
Подарок от PrimaNota.Ru, забирай!