PrimaNota.ru - самый крупный в мире бесплатный архив песенных текстов, аккордов, табулатур и нот


Interpol - Gavilan - таба, видео

Регистрация Запомнить меня
Войти через:  Facebook Google Twitter Vk Yandex Mail.ru

Interpol - Gavilan - таба, видео

Печатать
Просмотров: 247
Cubed/ Mascara /Gavilan

===============Part I ======== Guitar 1 (eBG strings) + Guitar 2 (D string)

e-1-//----|------|-1-//-----------|--------------|-0-//----|-----|-0-//----------|--------------|
B-3-//----|------|-2-//-----------|--------------|-1-//----|-----|-0-//----------|--------------|
G-2-//----|------|-2-//-----------|--------------|-2-//----|-----|-2-//----------|--------------|
D----2-3--|-3-2--|----2/5-5/7-7/2-|-2-3-3--0-1-2-|---2-3---|-3-2-|----2/5-5/7-7/2|-2-3-3--0-1-2-|
A---------|------|----------------|--------------|---------|-----|---------------|--------------|
E---------|------|----------------|--------------|---------|-----|---------------|--------------|

********       INTRO:   Guitar 1 only (eBG strings)..I recommend a looper here !
********(0:40”)VERSE 1: Guitar 1+ 2
Yes I sure miss the early days..I was so drunk ..Tied up in so many ways..Looking for 
the sanctity of love cause

I might make you handsome ...I might give you me..And handsome is getting awfully tough  
..Oh to have my peace

*******   VERSE 2:    Guitar 2 only (+Keyboards Dm mainly)
oh if it weren't for this fear ..I just might really be someone..But I can make it in 
peace ..Time finds some violence in a new born..Trade to me–e-e...

Starting up the rain again (x2) ..Isn't that a shame..it goes by

******** (2'30”)VERSE 3: Guitar 1+ 2)
And it goes fine ..By a fine..wide mile..You'll be there for me sweety pie..You'll be 
there for the dream car..You'll go running away

'Cause I might make you handsome ..I might if you plead..Try the long way back..Oh stay
Travelling with that black cab ..Don't you stay  ..Travelling with that black cab
Finding you is difficult ...But I will be there

===============Part II (aprox 3'20”)========
Bitch slap Maybelline, stay hidden, yeah remain unseen (x2)
Bitch slap Maybelline, stay hidden  (x 2)  ...yeah remain

e----------------------------------------------------------------------|
B--3---3--3--3---2---2---2---2---2---2---2---2---2---2---2---2---------|
G----3--3--3---3---2---2---2---2---0---0---0---0---2---2---2---2-------|
D----------------------------------------------------------------------|
A----------------------------------------------------------------------|
E----------------------------------------------------------------------|

===============Part III (4'17”)
Bye, bye, bye, bye, bye, bye

e--1--1-3--3-3-1-5-5--3-1-0-1--9--9--9--9--10--10--10--10---|
B-------------------------------10-10-10-10--10--10--10--10-|
G-----------------------------------------------------------|
D-----------------------------------------------------------|
A-----------------------------------------------------------|
E-----------------------------------------------------------|
===============Part IV (5'00”)
e-1-//----|------|-1-//-----------|--------------|-0-//----|-----|-0-//----------|--------------|
B-3-//----|------|-2-//-----------|--------------|-1-//----|-----|-0-//----------|--------------|
G-2-//----|------|-2-//-----------|--------------|-2-//----|-----|-2-//----------|--------------|
D---------|------|----------------|--------------|---------|-----|---------------|--------------|
A---------|------|----------------|--------------|---------|-----|---------------|--------------|
E---------|------|----------------|--------------|---------|-----|---------------|--------------|

*********(5:15) ********************
e-1-//----|------|-1-//-----------|--------------|-0-//----|-----|-0-//----------|--------------|
B-3-//----|------|-2-//-----------|--------------|-1-//----|-----|-0-//----------|--------------|
G-2-//----|------|-2-//-----------|--------------|-2-//----|-----|-2-//----------|--------------|
D----2-3--|-3-2--|----2/5-5/7-7/2-|-2-3-3--0-1-2-|---2-3---|-3-2-|----2/5-5/7-7/2|-2-3-3--0-1-2-|
A---------|------|----------------|--------------|---------|-----|---------------|--------------|
E---------|------|----------------|--------------|---------|-----|---------------|--------------|

Baby don't you steady for them, oh them...'Cause Grandma will be coming home soon
You might get lost ..I said you might get lost...Girl I should go guess you

Baby don't you steady for them, oh them...'Cause Grandma will be coming home soon
You might get lost...Oh yeah you might get lost..Girl I sure would miss you
********************************* (add fast vibrato)

e--8------8---6---10---8---8-------8---6---10---8---8-------|
B--8------8---8---8----8---8-------8---8---8----8---8-------|
G-----------------------------------------------------------|
D-----------------------------------------------------------|
A-----------------------------------------------------------|
E-----------------------------------------------------------|

Maybe someday ..I'll make ground ..Plan on break ..I'm undone
Baby, at this rate time should slow down
=============== END ====================

Guitar 2

e----------------------------------------------|
B----------------------------------------------|
G--3---3/7---/2--------------------------------|
D----------------------------------------------|
A----------------------------------------------|
E----------------------------------------------|
Добавлено: 15.06.2013
Другие материалы по этой песне:
  • Аккорды и текст

Страница создана 15.06.2013
http://primanota.ru/interpol/gavilan-chords.htm
Привет, Гость.
Предлагаем пройти революционный курс по гитаре.
Подарок от PrimaNota.Ru, забирай!