PrimaNota.ru - самый крупный в мире бесплатный архив песенных текстов, аккордов, табулатур и нот


Incubus - New Skin - аккорды и текст, таба, бас-таба, видео

Регистрация Запомнить меня
Войти через:  Facebook Google Twitter Vk Yandex Mail.ru

Incubus - New Skin - аккорды и текст, таба, бас-таба, видео

Печатать
Просмотров: 291
Авторы музыки: Brandon Boyd, Mike Einziger, José Pasillas, Alex Katunich, Gavin Koppell

New Skin
Incubus
Band: Incubus
Song: New skin
Tuning: Standard
Tabbed by $@NDER

Intro PALM MUTE
e|----------------------------------------|
B|----------------------------------------|
G|-4-4----4-4----4-4---4-4----------------|
D|-4-4----4-4----4-4---4-4----------------|
A|-2-2----2-2----2-2---2-2----------------|
E|----------------------------------------|

e|----------------------------------------|
B|----------------------------------------|
G|-4-4-4-4-4-4-----4-4-4-4-4-4-7-7--------|
D|-4-4-4-4-4-4-3-3-4-4-4-4-4-4-7-7--------|
A|-2-2-2-2-2-2-3-3-2-2-2-2-2-2-5-5--------|
E|-------------1-1------------------------|

The verse has some guitar in it but it's hard to tab out
but this comes in the middle
e|----------------------------------------|
B|----------------------------------------|
G|-4-4-4----------------------------------|
D|-4-4-4----------------------------------|
A|-2-2-2----------------------------------|
E|----------------------------------------|

e|----------------------------------------|
B|----------------------------------------|
G|-4-4---5-5------------------------------|
D|-4-4---5-5------------------------------|
A|-2-2-0-3-3-0----------------------------|
E|----------------------------------------|

Chorus
e|----------------------------------------|
B|----------------------------------------|
G|----------------------------------------|
D|-7-7-7-9-9-9-9-10-10-10-10-10-10-10-----|
A|-7-7-7-7-7-7-7-10-10-10-8--8--8--8------|
E|-5-5-5-7-7-7-7-8--8--8--8--8--8--8------|

After the break play that couple of times
e|----------------------------------------|
B|----------------------------------------|
G|-4-4-4-4--------------------------------|
D|-4-4-4-4--------------------------------|
A|-2-2-2-2--------------------------------|
E|-2-2-2-2--------------------------------|

End with a palm muted
e|----------------------------------------|
B|----------------------------------------|
G|-5-5-5----------------------------------|
D|-5-5-5----------------------------------|
A|-3-3-3----------------------------------|
E|----------------------------------------|
     
Добавлено: 18.07.2013
Другие материалы по этой песне:

Страница создана 10.03.2012
http://primanota.ru/incubus/new-skin-chords.htm
Привет, Гость.
Предлагаем пройти революционный курс по гитаре.
Подарок от PrimaNota.Ru, забирай!