PrimaNota.ru - самый крупный в мире бесплатный архив песенных текстов, аккордов, табулатур и нот


Incubus - Megalomaniac - аккорды и текст, таба, бас-таба, видео

Регистрация Запомнить меня
Войти через:  Facebook Google Twitter Vk Yandex Mail.ru

Incubus - Megalomaniac - аккорды и текст, таба, бас-таба, видео

Печатать
Просмотров: 431
Авторы: Ben Kenney, Brandon Boyd, Mike Einziger, José Pasillas, Chris Kilmore

Megalomaniac
Incubus
		   Incubus - Megalomaniac (Both Live and Studio Version)
Album: A Crow Left of the Murder
Tabbed by: TheTuneman (12/25/03)



E----------------------------------------------------------------
B----------------------------------------------------------------
G----0-0-0-0-0-----0-0-0-0-0-----0-0-0-0-0-----0-0-0-0-0---------
D----5-5-5-5-5b--5-5-5-5-5-5b--5-5-5-5-5-5b--5-5-5-5-5-5b--------
A----------------------------------------------------------------
E----------------------------------------------------------------



E----------------------------------------------------------------
B---------------------8-8----8------------------------8-8----8---
G--0---0-0---0-0------0-0----0-----0---0-0---0-0------0-0----0---
D--3/5-5-5/8-8-8-0----8-8----8---0-3/5-5-5/8-8-8-0----8-8----8---
A------------------6--6-6--6-6---------------------6--6-6--6-6---
E----------------------------------------------------------------



E----------------------------------------------------------------
B-----------------------8-8----8------------------------8-8----8-
G----0---0-0---0-0------0-0----0-----0---0-0---0-0------0-0----0-  X2
D--0-3/5-5-5/8-8-8-0----8-8----8---0-3/5-5-5/8-8-8-0----8-8----8-
A--------------------6--6-6--6-6---------------------6--6-6--6-6-
E----------------------------------------------------------------



E----------------------------------------------------------------
B-----------------------8-8----8---------------------------------
G----0---0-0---0-0------0-0----0-----0---0-0---0-0---8-8-8--5-5-5
D--0-3/5-5-5/8-8-8-0----8-8----8---0-3/5-5-5/8-8-8-0-8-8-8--5-5-5
A--------------------6--6-6--6-6---------------------6-6-6--3-3-3
E----------------------------------------------------------------



E----------------------------------------------------------------
B----------------------------------------------------------------
G---------------8-8-8---3/5-5----------------8-8-8---3/5-5-------   X2
D--5----5/8-8---8-8-8---3/5-5-0-5----5/8-8---8-8-8---3/5-5-------
A--5--0-5/8-8-0-6-6-6-0-1/3-3-0-5--0-5/8-8-0-6-6-6-0-1/3-3-------
E--3--0-3/6-6-0-----------------3--0-3/6-6-0---------------------

   "Ah, ha!"



E-------------------------|--------1---------------3-------------
B--------6----------------|----3------3--------6------6---6------
G--0---0------------------|--0---0-----------3---3------3--------
D--3/5--------------------|--------------------------------------
A-------------------------|--------------------------------------
E-------------------------|--------------------------------------

           "I hear you on the radio."



E-------------------------|--------3---------------1-------------
B-------(0)---------------|----6------6--------3------3----------
G--0-----0----------------|--3---3------3----0---0------0--------
D--5\3-3-3----------------|--------------------------------------
A-------------------------|--------------------------------------
E-------------------------|--------------------------------------



E-------------------------|--------1---------------3-------------
B--------6----------------|----3------3--------6------6---6------
G--0---0------------------|--0---0-----------3---3------3--------
D--3/5--------------------|--------------------------------------
A-------------------------|--------------------------------------
E-------------------------|--------------------------------------



E-------------------------|--------3---------------1-------------
B-------(0)---------------|----6------6--------3------3----------
G--0-----0---------0------|--3---3-----------0---0---------------
D--5\3-3-3b------3--------|--------------------------------------
A--------------3-----2----|--------------------------------------
E----------------------3--|--------------------------------------



E----------------------------------------------------------------
B-----------------------8-8----8---------------------------------
G----0---0-0---0-0------0-0----0-----0---0-0---0-0---8-8-8--5-5-5
D--0-3/5-5-5/8-8-8-0----8-8----8---0-3/5-5-5/8-8-8-0-8-8-8--5-5-5
A--------------------6--6-6--6-6---------------------6-6-6--3-3-3
E----------------------------------------------------------------



E----------------------------------------------------------------
B----------------------------------------------------------------
G---------------8-8-8---3/5-5----------------8-8-8---3/5-5-------   X2
D--5----5/8-8---8-8-8---3/5-5-0-5----5/8-8---8-8-8---3/5-5-------
A--5--0-5/8-8-0-6-6-6-0-1/3-3-0-5--0-5/8-8-0-6-6-6-0-1/3-3-------
E--3--0-3/6-6-0-----------------3--0-3/6-6-0---------------------

   "Hey, Megalomaniac!"



E-------------------------|---------3--------------1-------------
B--------6-5h6p5h6p5h6p5--|----6------6--------3------3----------
G--0---0------------------|--3---3-----------0---0---------------
D--3/5--------------------|--------------------------------------
A-------------------------|--------------------------------------
E-------------------------|--------------------------------------



E-------------------------|--------1---------------3-------------
B--------6----------------|----3------3--------6------6---6------
G--0---0------------------|--0---0-----------3---3------3--------
D--3/5--------------------|--------------------------------------
A-------------------------|--------------------------------------
E-------------------------|--------------------------------------



E-------------------------|--------3--------------1--------------
B-------(0)---------------|----6------6--------3------3---3------
G--0-----0----------------|--3---3------3----0---0------0--------
D--5\3-3-3----------------|--------------------------------------
A-------------------------|--------------------------------------
E-------------------------|--------------------------------------



E-------------------------|---------1--------------3-------------
B--------6-5h6p5h6p5h6p5--|----3------3--------6------6----------
G--0---0------------------|--0---0-----------3---3---------------
D--3/5--------------------|--------------------------------------
A-------------------------|--------------------------------------
E-------------------------|--------------------------------------



E-------------------------|---------3--------------1-------------
B-------(0)---------------|----6------6--------3------3----------
G--0-----0---------0------|--3---3------3----0---0------0--------
D--5\3-3-3b------3--------|--------------------------------------
A--------------3-----2----|--------------------------------------
E----------------------3--|--------------------------------------



E----------------------------------------------------------------
B-----------------------8-8----8---------------------------------
G----0---0-0---0-0------0-0----0-----0---0-0---0-0---8-8-8--5-5-5
D--0-3/5-5-5/8-8-8-0----8-8----8---0-3/5-5-5/8-8-8-0-8-8-8--5-5-5
A--------------------6--6-6--6-6---------------------6-6-6--3-3-3
E----------------------------------------------------------------



E----------------------------------------------------------------
B----------------------------------------------------------------
G---------------8-8-8---3/5-5----------------8-8-8---3/5-5-------   X4
D--5----5/8-8---8-8-8---3/5-5-0-5----5/8-8---8-8-8---3/5-5-------
A--5--0-5/8-8-0-6-6-6-0-1/3-3-0-5--0-5/8-8-0-6-6-6-0-1/3-3-------
E--3--0-3/6-6-0-----------------3--0-3/6-6-0---------------------

(Very slow and deep phaser is added the 3rd and 4th time around)



E--------10--------10--------10-------10-------------10--------10
B-----13--------13--------13----13-------13-------13--------13---
G--10--------10--------10----------10-------10-12--------12------
D----------------------------------------------------------------
A----------------------------------------------------------------
E----------------------------------------------------------------



E--------10-------10-------------10-------10-------10-------10---
B-----13----13-------13-------13-------13-------13----13-------13
G--12----------12-------12-10-------10-------10----------10------
D----------------------------------------------------------------
A----------------------------------------------------------------
E----------------------------------------------------------------



E-----------10-------10-------10-------10------------------------
B--------13-------13-------13----13-------13---------------------
G--10-12-------12-------12----------12---------------------------
D----------------------------------------------------------------
A----------------------------------------------------------------
E----------------------------------------------------------------



E----------------------------------------------------------------
B----------------------------------------------------------------
G--12-12-10-12--12-10-12--12-12-10-12-14-12-10-------------------   X8
D--10-10-10-10--10-10-10--10-10-10-10-10-10-10-------------------
A----------------------------------------------------------------
E----------------------------------------------------------------

(Slow phaser is again added at the 5th through 8th time around)



E----------------------------------------------------------------
B----------------------------------------------------------------
Gm-00000000000000000000000000000000------------------------------
D--55555555555555555555555555555555------------------------------
A----------------------------------------------------------------
E----------------------------------------------------------------



E----------------------------------------------------------------
B----------------------------------------------------------------
G---------------8-8-8---3/5-5----------------8-8-8---3/5-5-------   X3
D--5----5/8-8---8-8-8---3/5-5-0-5----5/8-8---8-8-8---3/5-5-------
A--5--0-5/8-8-0-6-6-6-0-1/3-3-0-5--0-5/8-8-0-6-6-6-0-1/3-3-------
E--3--0-3/6-6-0-----------------3--0-3/6-6-0---------------------

(Slow phaser is again added at the 3rd time around untill the end of the song)



E----------------------------------------------------------------
B----------------------------------------------------------------
G---------------8-8-8---3/5-5----------------8-8-8---3/5-5b------
D--5----5/8-8---8-8-8---3/5-5-0-5----5/8-8---8-8-8---3/5-5b------
A--5--0-5/8-8-0-6-6-6-0-1/3-3-0-5--0-5/8-8-0-6-6-6-0-1/3-3-------
E--3--0-3/6-6-0-----------------3--0-3/6-6-0---------------------     
Добавлено: 05.08.2013
Другие материалы по этой песне:

Страница создана 16.03.2012
http://primanota.ru/incubus/megalomaniac-chords.htm
Привет, Гость.
Предлагаем пройти революционный курс по гитаре.
Подарок от PrimaNota.Ru, забирай!