PrimaNota.ru - самый крупный в мире бесплатный архив песенных текстов, аккордов, табулатур и нот


Incubus - Make Yourself - аккорды и текст, таба, бас-таба, видео

Регистрация Запомнить меня
Войти через:  Facebook Google Twitter Vk Yandex Mail.ru

Incubus - Make Yourself - аккорды и текст, таба, бас-таба, видео

Печатать
Просмотров: 450
Уроки эстрадного вокала в Санкт-Петербурге
Авторы музыки: Brandon Boyd, Mike Einziger, José Pasillas, Alex Katunich, Chris Kilmore

Make Yourself
Incubus
Date: Mon, 4 Sep 2000 00:37:04 -0400
From: "Barry Morrissey" 
Subject: i/incubus/make_yourself.crd

Artist: Incubus
Title: Make Yourself
Album: Make Yourself
Written By: Incubus
Transcribed By: Barry Morrissey
Email: bare_bear_4@hotmail.com

-this beginning part is playing with slight distortion-
-it can get a little tricky for the beginners because it plays a line of 7/8 
time, and then a line of 8/8 time, so be careful-

E|-------------------------------------------------|
B|-------------------------------------------------|
G|-------------------------------------------------|
D|-9-x-5-5-x-5-5-x-----0-9-x-5-5-x-5-5-x---------0-|
A|-9-x-5-5-x-5-5-x-5-8-0-9-x-5-5-x-5-5-x-5-5-8-8-0-|
E|-7-x-3-3-x-3-3-x-6-6-0-7-x-3-3-x-3-3-x-6-6-6-6-0-|

-then play that part again with distortion-

-this next part is the chorus-
-between the first and second verses you play the first quarter of the 
chorus-

E|-------------------------------------------|
B|-------------------------------------------|
G|-7-7-7-7-7-3-3-3-3-3-----------------------|
D|-7-7-7-7-7-3-3-3-3-3-5-5-5-5-5-5-5-5-5-5-5-|
A|-5-5-5-5-5-1-1-1-1-1-5-5-5-5-5-5-5-5-5-5-5-|
E|---------------------3-3-3-3-3-3-3-3-3-3-3-|

E|-------------------------------------------|
B|-------------------------------------------|
G|-7-7-7-7-7-3-3-3-3-3-----------------------|
D|-7-7-7-7-7-3-3-3-3-3-5-5-5-5-5-5-3-3-3-3-3-|
A|-5-5-5-5-5-1-1-1-1-1-5-5-5-5-5-5-3-3-3-3-3-|
E|---------------------3-3-3-3-3-3-1-1-1-1-1-|

E|-------------------------------------------|
B|-------------------------------------------|
G|-7-7-7-7-7-3-3-3-3-3-----------5-5-5-5-5-5-|
D|-7-7-7-7-7-3-3-3-3-3-5-5-5-5-5-5-5-5-5-5-5-|
A|-5-5-5-5-5-1-1-1-1-1-5-5-5-5-5-3-3-3-3-3-3-|
E|---------------------3-3-3-3-3-------------|

E|-------------------------------------------|
B|-------------------------------------------|
G|-7-7-7-7-7-3-3-3-3-3-----------------------|
D|-7-7-7-7-7-3-3-3-3-3-5-5-5-5-5-5-3-3-3-3-3-|
A|-5-5-5-5-5-1-1-1-1-1-5-5-5-5-5-5-3-3-3-3-3-|
E|---------------------3-3-3-3-3-3-1-1-1-1-1-|

-this is the little "breakdown", it is slightly distorted-

E|------------------------|
B|------------------------|
G|------------------------|
D|-7-9-5-5--7-9-5-5-5-7-7-|
A|-9-7-7----9-7-7---------|
E|-------6--------6-6-6-6-|

-this next part is basically the same thing, but hit the distortion for the 
last three notes-

E|-------------|
B|-------------|
G|-------------|
D|-7-9-5-5-5-5-|
A|-9-7-7-------|
E|-------6-6-6-|

-this part is distorted and its in 7/8 time-

E|---------------------|
B|---------------------|
G|---------------------|
D|-9-x-5-5-x-5-5-x-5-5-|
A|-9-x-5-5-x-5-5-x-----|
E|-7-x-3-3-x-3-3-x-6-6-|

-then play the chorus again, and then play the verse distorted-

-and thats the end of the song-

-if you have an questions/comments on this, please email me at, 
bare_bear_4@hotmail.com-

-thank you-
Добавлено: 08.03.2012
Другие материалы по этой песне:

Страница создана 23.02.2012
http://primanota.ru/incubus/make-yourself-chords.htm
Привет, Гость.
Предлагаем пройти революционный курс по гитаре.
Подарок от PrimaNota.Ru, забирай!