PrimaNota.ru - самый крупный в мире бесплатный архив песенных текстов, аккордов, табулатур и нот


Incubus - Friends And Lovers - текст песни, таба, видео

Регистрация Запомнить меня
Войти через:  Facebook Google Twitter Vk Yandex Mail.ru

Incubus - Friends And Lovers - текст песни, таба, видео

Печатать
Просмотров: 142
Tabbed by: andi_mk
Email: andi_walton@hotmail.com

My First tab. hope its not too bad

Tuning:EADGBe

Main Riff(this is the basis of this part i noticed mike does some alt picking on this 
part but cant work it out)
e|---------------------------|---------------------------|---------------------------|
B|-3--5--8--10--12----12--12-|-3--5--8--10--17----15--15-|-3--5--8--10--12----12--12-|
G|---------------------------|---------------------------|---------------------------|
D|---------------------------|---------------------------|---------------------------|
A|---------------------------|---------------------------|---------------------------|
E|-3--5--8--10--12----12--12-|-3--5--8--10--17----15--15-|-3--5--8--10--12----12--12-|

e|--------------------|
B|---------8--8--8----|
G|----7p9-----------9-|
D|--------------------|
A|--------------------|
E|-8~-----------------| x4

Chorus
             D                       C                       D               G
e|-----------------------|-----------------------|-----------------------|------|
B|-----------------------|-----------------------|-----------------------|------|
G|-7---7---7---7---7---7-|-7---7---7---7---7---7-|-7---7---7---7---7---7-|------|
D|---4---4-------4---4---|-----------------------|---4---4-------4---4---|------|
A|-----------------------|---7---7-------7---7---|-----------------------|------|
E|-----------------------|-----------------------|-----------------------|-3~---|

thats all i've been able to work out so far. corrections and help would be much 
appreciated :D

************************************

| /   slide up
| \   slide down
| h   hammer-on
| p   pull-off
| ~   vibrato
| +   harmonic
| x   Mute note
| b   Bend
| pb  Pre-bend
| br  Bend release
| pbr Pre-bend release
| brb Bend release bend

************************************
Добавлено: 14.05.2012
Другие материалы по этой песне:
  • Аккорды и текст

Страница создана 14.05.2012
http://primanota.ru/incubus/friends-and-lovers-chords.htm
Привет, Гость.
Предлагаем пройти революционный курс по гитаре.
Подарок от PrimaNota.Ru, забирай!