PrimaNota.ru - самый крупный в мире бесплатный архив песенных текстов, аккордов, табулатур и нот


Incubus - Lets Go Crazy - текст песни, таба, бас-таба, видео

Регистрация Запомнить меня
Войти через:  Facebook Google Twitter Vk Yandex Mail.ru

Incubus - Lets Go Crazy - текст песни, таба, бас-таба, видео

Печатать
Просмотров: 282
Уроки эстрадного вокала в Санкт-Петербурге
Авторы музыки: Prince
Авторы текста: Prince
Incubus – Let's Go Crazy

Standard Tuning EADGBe
X – Palm mute
h – Hammer-on
s – Slide
p – Pull-off
~ - Vibrato
b - bend

0:38 …everything will be all right….
E|-----|	
B|-----|	
G|-----|		
D|-4---| x1 let ring.
A|-4---| 
E|-2---|

0:52 
e|-----X-X--------------------|	
B|-----X-X-5-x-5-5-5-5-5-5----|	
G|-----X-X-4-X-4-4-4-4-4-4----|		
D|-4-4-X-X-2-X-2-2-2-2-2-2----| x4
A|-4-4-X-X--------------------| 
E|-2-2-X-X--------------------|

1:01 …punch a higher floor….
e|------------------------------------------------|	
B|------------------------------------------------|	
G|-----4-4----------------------4-4---------------|		
D|-4-4-4-4------------------4-4-4-4-------2-2-----| x2
A|-4-4-4-4-2p0-2-2/4-4-4/2--4-4-4-4-2h3h4-----4/0-| 
E|-2-2-2-2------------------2-2-2-2---------------|

1:11 …you don't like…
e|------------------------------------------|	
B|------------------------------------------|	
G|------------------------------------------|		
D|-4-4-------------------4-4--------2-2-----| x4
A|-4-4--2p0-2-2/4-4-4/2--4-4-2h3h4------4/0-| 
E|-2-2-------------------2-2----------------|

1:30 …are we gonna let the elevator…
e|---------------|	
B|---------------|	
G|---------10----|		
D|-6--8-8--9-----| x1
A|-4--6-6--7-----| 
E|---------------|

1:35 …let's go crazy, let's go nuts…
e|------------------------------------------|	
B|------------------------------------------|	
G|------------------------------------------|		
D|-4-4-------------------4-4--------2-2-----| x4
A|-4-4--2p0-2-2/4-4-4/2--4-4-2h3h4------4/0-| 
E|-2-2-------------------2-2----------------|


1:44
e|-----------------------|	
B|-----------------------|	
G|-----------------------|		
D|-----------------------| x4
A|---------4-7-4-7-7/----| 
E|-2-5-7-8---------------|

1:54 …we're all excited but we don't know why…
e|------------------------------------------|	
B|------------------------------------------|	
G|------------------------------------------|		
D|-4-4-------------------4-4--------2-2-----| x4
A|-4-4--2p0-2-2/4-4-4/2--4-4-2h3h4------4/0-| 
E|-2-2-------------------2-2----------------|

2:12 …are we gonna let the elevator…
e|--------------|	
B|--------------|	
G|--------10----|		
D|-6--8-8-9-----| x1
A|-4--6-6-7-----| 
E|--------------|

2:17 …let's go crazy, let's get nuts…
e|------------------------------------------|	
B|------------------------------------------|	
G|------------------------------------------|		
D|-4-4-------------------4-4--------2-2-----| x2
A|-4-4--2p0-2-2/4-4-4/2--4-4-2h3h4------4/0-| 
E|-2-2-------------------2-2----------------|

2:26 …yeah come on baby…
e|-------------|	
B|-------------|	
G|-8--9--8--10-|		
D|-8--9--8--9--| x1
A|-6--7--6--7--| 
E|-------------|

2:35 Solo
e|----------------------------------------------------|	
B|--5-7--5-7--5-7--5-7--5-7--5-7--5-7--5-7--5-7--5-7--|	
G|-6----6----6----6----6----6----6----6----6----6-----|		
D|----------------------------------------------------| 
A|----------------------------------------------------| 
E|----------------------------------------------------|

2:41
E|------------------------------------------------------------|	
B|-17b19~--17b19~--17b19r17p14-17b19r17p4-17b19r17p4-17b-17b--|	
G|------------------------------------------------------------|		
D|------------------------------------------------------------| 
A|------------------------------------------------------------| 
E|------------------------------------------------------------|
2:46
E|-19~~19b-19b-19b-19b21r19-19-17--17--17--17--17--17----|	
B|------------------------------19--19--19--19--19--19---|	
G|-------------------------------------------------------|		
D|-------------------------------------------------------| 
A|-------------------------------------------------------| 
E|-------------------------------------------------------|

2:53
E|-17p14/12—14p12/9—12p9/7—9p7/5—7p5/--|	
B|-------------------------------------|	
G|-------------------------------------|		
D|-------------------------------------| 
A|-------------------------------------| 
E|-------------------------------------|

2:55 …are we gonna let the elevator bring us down…
E|-----------|	
B|-----------|	
G|-6--8-8-10-|		
D|-6--8-8-9--| 
A|-4--6-6-7--| 
E|-----------|

3:00 …let's go crazy, let's go crazy…
e|------------------------------------------------|	
B|------------------------------------------------|	
G|-----4-4----------------------4-4---------------|		
D|-4-4-4-4------------------4-4-4-4-------2-2-----| x2
A|-4-4-4-4-2p0-2-2/4-4-4/2--4-4-4-4-2h3h4-----4/0-| 
E|-2-2-2-2------------------2-2-2-2---------------|

3:09 …Dr. Everything will be all right…
e|------------------------------------------|	
B|------------------------------------------|	
G|------------------------------------------|		
D|-4-4-------------------4-4--------2-2-----| x4
A|-4-4--2p0-2-2/4-4-4/2--4-4-2h3h4------4/0-| 
E|-2-2-------------------2-2----------------|

3:18 …he's come he's come he's come…
e|-----------------------------------------------------------------|	
B|-----------------------------------------------------------------|	
G|-----------------------------------------------------------------|		
D|-----------------------------------------------------------------|
A|---------4-7-4-7-7-7-7-7/9------4-7-4-7-7-7-7-7\9------4-7-4-7---| 
E|-2-5-7-8------------------5-7-8-------------------5-7-8----------|

3:28
e|--------------------------------------------------------------------|	
B|--------------------------------------------------------------------|	
G|--------------------------------------------------------------------|		
D|--------------------------------------------------------------------|
A|-/19~-----4-7-4-7\19~-----4-7-4-7\19~-----4-7-4-7\19~-----4-7-4-7---| 
E|-----5-7-8-----------5-7-8-----------5-7-8-----------5-7-8----------|

Solo Out 


LYRICS:
Dearly beloved we are gathered here today
To get through this thing called life, electric word life
That means forever and that's a mighty long time
But I'm here to tell you there's something else, the afterworld
A world of never ending happiness
You can always see the sun, day or night

So when you call up that shrink in Beverly Hills
You know the one, Dr. Everything'll be alright
Instead of asking him how much of your time is left
Ask him how much of your mind, baby
'Cause in this life things are much harder than in the afterworld
In this life you're on your own

And if the elevator tries to bring you down
Go crazy, punch a higher floor
If you don't like the world you're living in
Take a look around you, at least you got friends

You see I called my old lady for a friendly word
She picked up the phone, dropped it on the floor
Ah, ah, is all I heard

Are we gonna let the elevator bring us down?
Oh no, let's go, let's go crazy, let's get nuts
Let's look for the purple banana till they put us in the truck, let's go

We're all excited but we don't know why
Maybe it's 'cause we're all gonna die
And when we do, yeah what's it all for?
You better live now before the grim reaper comes knocking on your door

Tell me, are we gonna let the elevator bring us down?
Oh, no let's go, let's go crazy, let's get nuts
Look for the purple banana ‘til they put us in the truck, let's go
C'mon baby, let's get nuts, yeah let's go crazy

Are we gonna let the elevator bring us down?
Oh no, let's go, go crazy, let's go crazy
Let's go, let's go, let's go

Dr. Everything'll be alright
Gonna make everything go wrong
Pills and thrills and daffodils will kill
Hang tough children, he's come, he's come, he's come

Take me away

**I do not own any music or lyrics listed here**


Добавлено: 15.05.2012
Другие материалы по этой песне:
  • Аккорды и текст

Страница создана 24.04.2012
http://primanota.ru/incubus/lets-go-crazy-chords.htm
Привет, Гость.
Предлагаем пройти революционный курс по гитаре.
Подарок от PrimaNota.Ru, забирай!