PrimaNota.ru - самый крупный в мире бесплатный архив песенных текстов, аккордов, табулатур и нот


Iggy & The Stooges - Cock in my pocket - таба, видео

Регистрация Запомнить меня
Войти через:  Facebook Google Twitter Vk Yandex Mail.ru

Iggy & The Stooges - Cock in my pocket - таба, видео

Печатать
Просмотров: 77


i think this is an out take from raw power or something. but what ever it is, its a good song.

from what i can hear, there are two parts:
1
-------------------------------------
-------------------------------------
-------------------------------------
-2-4-2-4-5-5-4-2-4-2-2-2-4-2-2-2-2-4-
-0-0-0-0-0-0-0-0-0-0-0-0-0-0-0-0-0-0-
-------------------------------------

---
---
---
---
-2-
-0-
you repeat that a few times...

and the next bit is:
---------------------
---------------------
-7-------------------
-7-7---5-5-5-5-5-5-5-
-5-7---3-3-3-3-3-5-5-
---5-------------3-3-
and that is it as far as i can tell

Добавлено: 12.02.2014
Другие материалы по этой песне:
  • Аккорды и текст

Страница создана 12.02.2014
http://primanota.ru/iggy-and-the-stooges/cock-in-my-pocket-chords.htm
Привет, Гость.
Предлагаем пройти революционный курс по гитаре.
Подарок от PrimaNota.Ru, забирай!