PrimaNota.ru - самый крупный в мире бесплатный архив песенных текстов, аккордов, табулатур и нот


Iggy & The Stooges - Shake Appeal - аккорды и текст, таба, видео

Регистрация Запомнить меня
Войти через:  Facebook Google Twitter Vk Yandex Mail.ru

Iggy & The Stooges - Shake Appeal - аккорды и текст, таба, видео

Печатать
Просмотров: 193
Shake Appeal
Iggy & The Stooges
Tuning: standard e
 
a real cool old school punk song thats simple and fun to play

main riff
[e--------------------------------------------------------------
B--------------------------------------------------------------
G------------------3333----------------------------------------
D-33---------1-x3-3333----------------------------------------
A-33-----1-3------1111----------------------------------------
E-11-1-3------------------------------------------------------]

a little lick that is present every now and then
[e-----------------------------------------------------------------------
B-----------------------------------------------------------------------
G-33--------------------------------------------------------------------
D-33--------------------------------------------------------------------
A-11-3431---------------------------------------------------------------
E-----------------------------------------------------------------------]

thats it so far, just repeat that a load of times
As for the solo-thing, im working on that and should have it up soon.
Enjoy
Добавлено: 23.05.2014
Другие материалы по этой песне:
  • Аккорды и текст

Страница создана 10.03.2012
http://primanota.ru/iggy-and-the-stooges/shake-appeal-chords.htm
Привет, Гость.
Предлагаем пройти революционный курс по гитаре.
Подарок от PrimaNota.Ru, забирай!