PrimaNota.ru - самый крупный в мире бесплатный архив песенных текстов, аккордов, табулатур и нот


Iced Earth - Glorious Burden (album) - таба, видео

Регистрация Запомнить меня
Войти через:  Facebook Google Twitter Vk Yandex Mail.ru

Iced Earth - Glorious Burden (album) - таба, видео

Печатать
Просмотров: 140
Уроки эстрадного вокала в Санкт-Петербурге
Band - Iced Earth
Album - The Glorious Burden

Track Listings:
1. Star Spangled Banner
2. Declaration Day
3. When The Eagle Cries
4. The Reckoning (Don't Tread On Me)
5. Greenface
6. Attila
7. Red Baron/Blue Max
8. Hollow Man
9. Valley Forge
10. Waterloo
11. The Devil To Pay
12. Hold At All Costs
13. High Water Mark
14. When The Eagle Cries (Unplugged)

----------------------------------------------------

1. STAR SPANGLED BANNER
Tuning: Eb

Lots of harmony here so I'll try to break it up so it's easy to follow.


Section 1:  0:00-0:34

Guitar 1
eb|---------------------------------|
Bb|---------------------------------|
Gb|---------------------------------|
Db|----------------------------4----|
Ab|-2--------2--------2--------2----|
Eb|-0--------0--------0-------------|

eb|---------------------------------|
Bb|---------------------------------|
Gb|---------------------------------|
Db|----------4----------------------|
Ab|-2--------2--------2-------(2)---|
Eb|-0-----------------0-------(0)---|

eb|-----------------------------------|
Bb|-----------------------------------|
Gb|-----------------------------------|
Db|---------6----6--6-------4---------|
Ab|-2----6--4----3--4-------2----2----|
Eb|-0-----~--------------2~---------4-|

eb|----------------------------------|
Bb|----------------------------------|
Gb|----------------------------------|
Db|----------4-----------------------|
Ab|-2--------2----4-6-7--7--------2--|
Eb|-0-----------------------7--4--0--|

Guitar 2
eb|------------------------------------|
Bb|--------------------9-7-------------|
Gb|---------------9--------9-----------|
Db|-9--6----6--9--------------6--8--9--| ---|
Ab|------7-----------------------------|    |
Eb|------------------------------------|    |
                                            |--> Play 2x
eb|------------------------------------|    |
Bb|-----9--7---------------------------|    |
Gb|----------9--8----6-8-9--9----------|    |
Db|-9-9------------------------9--6----| ---|
Ab|---------------------------------7--|
Eb|------------------------------------|

Guitar 3
eb|----------------------16-14-12-----------|
Bb|-12----------12-17-------------------12--|
Gb|----13----13-------------------13-15-----|
Db|-------14--------------------------------| --------|
Ab|-----------------------------------------|         |
Eb|-----------------------------------------|         |
                                                      |--> Play 2x
eb|-------16--14-12------------------------------|    |
Bb|-12-12-----------16----14-16-17--17--12-------|    |
Gb|----------------------------------------13----|    |
Db|-------------------------------------------14-| ---|
Ab|----------------------------------------------|
Eb|----------------------------------------------|

Guitar 4 (Comes in the second time)
eb|----------------------------------------|
Bb|--------------9---14-14-14--------------|
Gb|-9-9-9-----9----------------13--11-9-8--|
Db|--------9-------------------------------|
Ab|----------------------------------------|
Eb|----------------------------------------|

eb|------------------------------------------------|
Bb|------------------------------------------------|
Gb|-8-8-13--11-13h14p13-11----11-11-13-13-9--------|
Db|------------------------------------------9-----|
Ab|---------------------------------------------7~-|
Eb|------------------------------------------------|


End section 1


Section 2  0:35-0:52

Guitar 1
eb|--------------------------------------------|
Bb|--------------------------------------------|
Gb|--------------------------------------------|
Db|-----------4----6----6-----4----4--------4--|
Ab|-2----2----2----3----4-----2----1-----1--2--|
Eb|-0----0----------------------------4--------|

Guitar 2
eb|-----------------------------------------------|
Bb|-----------------------------------------------|
Gb|-13-13-13--14--16--16----14-13-----13--14--14--|
Db|-------------------------------16--------------|
Ab|-----------------------------------------------|
Eb|-----------------------------------------------|

eb|---------------------------------------------------|
Bb|---------------------------------------------------|
Gb|-14--13--------------------------------------------|
Db|-----------16-14--13----11-13-14--6--8--9----9-9-9-|
Ab|---------------------------------------------------|
Eb|---------------------------------------------------|

Guitar 3
eb|-16-16-16--17--19--19----17-16-----16--17--17--|
Bb|-------------------------------19--------------|
Gb|-----------------------------------------------|
Db|-----------------------------------------------|
Ab|-----------------------------------------------|
Eb|-----------------------------------------------|

eb|-17--16-------------------------------------------------|
Bb|-----------19-17--16----14-16-17--9--11--12----12-12-12-|
Gb|--------------------------------------------------------|
Db|--------------------------------------------------------|
Ab|--------------------------------------------------------|
Eb|--------------------------------------------------------|

Guitar 4
eb|-------------------------------------------------|
Bb|-12-12-12--14--17--17----16-14-12--14--16\13-13--|
Gb|-------------------------------------------------|
Db|-------------------------------------------------|
Ab|-------------------------------------------------|
Eb|-------------------------------------------------|

eb|-------------------------------------------------------|
Bb|-13-13-14--14--14--12----12-12-11----12----------------|
Gb|-------------------------------------------14~-13~-11~-|
Db|-------------------------------------------------------|
Ab|-------------------------------------------------------|
Eb|-------------------------------------------------------|

End section 2


Section 3  0:53-End

NOTE: Ending blends into beginning of "Declaration Day", so the
last notes are denoted as ghost notes.

Guitar 1
eb|------------------------------------|
Bb|------------------------------------|
Gb|------------------------------------|
Db|---------6-------4----------4----4--|
Ab|-2----6--4----2--0--------1-2----2--|
Eb|-0--------------------4-5-----------|

eb|-------------------------------------|
Bb|-------------------------------------|
Gb|-------------------------------------|
Db|------------------------4------------|
Ab|-2----2--------2--------2--------(2)-|
Eb|-0----0--------0-----------------(0)-|

Guitar 2
eb|---------------------|
Bb|---------------------|
Gb|---------------------|
Db|---------------------|
Ab|-7--7--7-6--4--4--4--|
Eb|---------------------|

eb|----------------------------|
Bb|----------------------------|
Gb|----------------------------|
Db|----------------------------|
Ab|-9--12-11-9-7--7----9\7--6--|
Eb|----------------------------|

eb|---------------------|
Bb|---------------------|
Gb|---------------------|
Db|------------------9--|
Ab|-----7----9-11-12----|
Eb|-7-7-----------------|

eb|--------------------------|
Bb|--------------------------|
Gb|--------------------------|
Db|--------------------------|
Ab|-7--9--11----12-9----(7)--|
Eb|--------------------------|

Guitar 3
eb|---------------------------|
Bb|---------------------------|
Gb|---------------------------|
Db|-14--14--14-13-11--11--11--|
Ab|---------------------------|
Eb|---------------------------|

eb|----------------------------------|
Bb|----------------------------------|
Gb|----------------------------------|
Db|-16--19-18-16-14-14----16\14--13--|
Ab|----------------------------------|
Eb|----------------------------------|

eb|--------------------------|
Bb|--------------------------|
Gb|----------------------16--|
Db|-------14----16-18-19-----|
Ab|-14-14--------------------|
Eb|--------------------------|

eb|-----------------------------|
Bb|-----------------------------|
Gb|-----------------------------|
Db|-14--16--18----19-16----(14)-|
Ab|-----------------------------|
Eb|-----------------------------|

Guitar 4
eb|---------------------------|
Bb|-17--17--17-16-14--14--14--|
Gb|---------------------------|
Db|---------------------------|
Ab|---------------------------|
Eb|---------------------------|

eb|-----17---------------------------|
Bb|-19-----21-19-17-17----19\17------|
Gb|------------------------------20--|
Db|----------------------------------|
Ab|----------------------------------|
Eb|----------------------------------|

eb|-------------------17--19--|
Bb|-------17----19-21---------|
Gb|-16-16---------------------|
Db|---------------------------|
Ab|---------------------------|
Eb|---------------------------|

eb|---------------17------------|
Bb|-17--19--21-------19----(17)-|
Gb|-----------------------------|
Db|-----------------------------|
Ab|-----------------------------|
Eb|-----------------------------|

Guitar 5
eb|---------------------------|
Bb|---------------------------|
Gb|-13--13--13-11--9---9---9--|
Db|---------------------------|
Ab|---------------------------|
Eb|---------------------------|

eb|----------------------------------|
Bb|----------------------------------|
Gb|-14--18-16-14-13-13----14\13--11--|
Db|----------------------------------|
Ab|----------------------------------|
Eb|----------------------------------|

eb|--------------------------|
Bb|----------------------17--|
Gb|-------13----14-16-18-----|
Db|-13-13--------------------|
Ab|--------------------------|
Eb|--------------------------|

eb|-----------------------------|
Bb|-----------------------------|
Gb|-13--14--16----18-14----(13)-|
Db|-----------------------------|
Ab|-----------------------------|
Eb|-----------------------------|

--------------------------------------------------

2. DECLARATION DAY

Tuning: Eb


Lead in from Star Spangled Banner:
Guitar 1
eb|----------|
Bb|----------|
Gb|----------|
Db|-(4)------|
Ab|-(2)--2---|
Eb|------0---|

Guitar 2, 3, 4, 5
eb|-(14-12)--|
Bb|-(10--9)--|
Gb|-(11--9)--|
Db|----------|
Ab|---9--7---|
Eb|----------|



Riff 1
Guitar 1
eb|--------------------------------|
Bb|--------------------------------|
Gb|--------------------------------|
Db|--------------------------------|
Ab|--------------------------------|
Eb|-000-0-000-0-000-0-000-0-...-00-|
    *** * *** * *** * *** *     **

Guitar 2
eb|-------------------------------|
Bb|-------------------------------|
Gb|-------------------------------|
Db|-9--------9---10--------10---9-|
Ab|-7--------7----7---------7---7-|
Eb|------------0--------------0---|
               *              *
eb|-----------------------|
Bb|-----------------------|
Gb|-----------------------|
Db|-9---7----7---5----7---|
Ab|-7---5----5---3----5---|
Eb|---0--------0--------0-|
      *        *        *


Riff 2
Guitar 1
eb|----0-----------------------------------------|
Bb|----0-----------------------------------------|
Gb|----------------------------------------------|
Db|----------------------------------------------|
Ab|-2-------7-7-7-7-5-3-5----5-7-0-3----3-0-5-7\-|
Eb|-0--------------------------------------------|
                                 *        *
eb|------0--------------------------------------|
Bb|------0--------------------------------------|
Gb|---------------------------------------------|
Db|---------------------------------------------|
Ab|-----------7-7-7-7-5-3-5----5-7-0-8----8-10\-|
Eb|-000-----------------------------------------|
    ***                            *

Guitar 2
eb|----0-----------------------------------------|
Bb|----0-----------------------------------------|
Gb|----------------------------------------------|
Db|---------9-9-9-9-7-5-7----7-9-----------7-5\--|
Ab|-2-----------------------------7----7-0-------|
Eb|-0--------------------------------------------|
                                         *
eb|------0---------------------------------------|
Bb|------0---------------------------------------|
Gb|----------------------------------------------|
Db|-----------9-9-9-9-7-5-7----7-9--10----10-12\-|
Ab|----------------------------------------------|
Eb|-000------------------------------------------|
    ***


Play Riff 1  "The odds are stacked..."


Riff 2a
Guitar 1
eb|----0-----------------------------------------|
Bb|----0-----------------------------------------|
Gb|----------------------------------------------|
Db|----------------------------------------------|
Ab|-2-------7-7-7-7-5-3-5----5-7-0-3----3-0-5-7\-|
Eb|-0--------------------------------------------|
                                 *        *
     "So we make our..."
eb|------0-----------------------------------------|
Bb|------0-----------------------------------------|
Gb|------------------------------------------------|
Db|------------------------------------------------|
Ab|-----------7-7-7-7-5-3-5----5-7-0-8----8-10-0-7-|
Eb|-000--------------------------------------------|
    ***                            *           *

    "...day..."
eb|------0-----------------------------------------|
Bb|------0-----------------------------------------|
Gb|------------------------------------------------|
Db|------------------------------------------------|
Ab|-----------7-7-7-7-5-3-5----5-7-0-3----3-0-5-7\-|
Eb|-000--------------------------------------------|
    ***                            *        *
     "So we make our..."
eb|------0--------------------------------------|
Bb|------0--------------------------------------|
Gb|---------------------------------------------|
Db|---------------------------------------------|
Ab|-----------7-7-7-7-5-3-5----5-7-0-8----8-10\-|
Eb|-000-----------------------------------------|
    ***                            *

    "...day..."

Guitar 2
eb|----0-----------------------------------------|
Bb|----0-----------------------------------------|
Gb|----------------------------------------------|
Db|---------9-9-9-9-7-5-7----7-9-----------7-5\--|
Ab|-2-----------------------------7----7-0-------|
Eb|-0--------------------------------------------|
                                         *
eb|------0-----------------------------------------|
Bb|------0-----------------------------------------|
Gb|------------------------------------------------|
Db|-----------9-9-9-9-7-5-7----7-9--10----10-12--9-|
Ab|------------------------------------------------|
Eb|-000--------------------------------------------|
    ***
eb|------0-----------------------------------------|
Bb|------0-----------------------------------------|
Gb|------------------------------------------------|
Db|-----------9-9-9-9-7-5-7----7-9-----------7-5\--|
Ab|---------------------------------7----7-0-------|
Eb|-000--------------------------------------------|
    ***                                    *
eb|------0---------------------------------------|
Bb|------0---------------------------------------|
Gb|----------------------------------------------|
Db|-----------9-9-9-9-7-5-7----7-9--10----10-12\-|
Ab|----------------------------------------------|
Eb|-000------------------------------------------|
    ***



Riff 3 (Solo Rhythm)
eb|----------------------------------|
Bb|----------------------------------|
Gb|----------------------------------|
Db|-9--------------------------------|
Ab|-7--77777777777777777777777777-00-|
Eb|----------------------------------|
       ************************** **
eb|-----------------------------------|
Bb|-----------------------------------|
Gb|-----------------------------------|
Db|-10--------------------------------|
Ab|--7--77777777777777777777777777-00-|
Eb|-----------------------------------|
        ************************** **
eb|----------------------------------|
Bb|----------------------------------|
Gb|----------------------------------|
Db|-9--------------------------------|
Ab|-7--77777777777777777777777777-00-|
Eb|----------------------------------|
       ************************** **
eb|-----------------------------------|
Bb|-----------------------------------|
Gb|-----------------------------------|
Db|-7----------------5----------------|
Ab|-5--5555555555-00-3--3333333333-00-|
Eb|-----------------------------------|
       ********** **    ********** **


Solo
eb|---------------------------|
Bb|--------------------8-7----|
Gb|----------4-7b9~--------9~-|
Db|-------5-------------------|
Ab|-7~------------------------|
Eb|---------------------------|

eb|--------------------------------------|
Bb|-10-12-[12]13----12b13-12-10-12~--12~-|
Gb|--------------------------------------|
Db|--------------------------------------|
Ab|--------------------------------------|
Eb|--------------------------------------|

eb|-12-14-14b15~--------15-17-19-17~-|
Bb|-------------------17-------------|
Gb|-----------------19---------------|
Db|----------------------------------|
Ab|----------------------------------|
Eb|----------------------------------|

eb|-----14-15-17-15-14-15----------|
Bb|---15------------------15b17~~--|
Gb|-17-----------------------------|
Db|--------------------------------|
Ab|--------------------------------|
Eb|--------------------------------|

eb|----------------------------------|
Bb|----------------------------------|
Gb|----------------------------------|
Db|-------9-12-----------------14----|
Ab|----10------12-9----9-12/13----14-|
Eb|-12--------------10---------------|

eb|----------------------------------------|
Bb|----------------------12----17-12-15----|
Gb|-11----11----14-11/12----12----------14-|
Db|----14----12----------------------------|
Ab|----------------------------------------|
Eb|----------------------------------------|

eb|-14----------15----14----|
Bb|----15-17-------17----15-|
Gb|----------16-------------|
Db|-------------------------|
Ab|-------------------------|
Eb|-------------------------|

eb|-16b17~----12h15p12----15-12-15----12-|
Bb|--------------------15----------15----|
Gb|--------------------------------------|
Db|--------------------------------------|
Ab|--------------------------------------|
Eb|--------------------------------------|

eb|-------12-------------------------------------|
Bb|-15b17----12-15-------12----------------------|
Gb|----------------14b16----15p14p12-14b16~----0-|
Db|----------------------------------------------|
Ab|----------------------------------------------|
Eb|----------------------------------------------|

eb|-------12----------------12-14-------------------12-------|
Bb|-15b17----15-12-------12-------15-12-15-12-15b17----15-12-|
Gb|----------------14b16-------------------------------------|
Db|----------------------------------------------------------|
Ab|----------------------------------------------------------|
Eb|----------------------------------------------------------|

eb|----------12-14----12-------12-17p15p12h16----12-------12-12-|
Bb|-------12-------15----15b17----------------15----15b17-------|
Gb|-14b16-------------------------------------------------------|
Db|-------------------------------------------------------------|
Ab|-------------------------------------------------------------|
Eb|-------------------------------------------------------------|

eb|----------------12----------------------------------|
Bb|-15-12-15-------------------------------------------|
Gb|----------14b16----15p14p12-14----12-14-12----------|
Db|-------------------------------14----------12-14----|
Ab|-------------------------------------------------14-|
Eb|----------------------------------------------------|

eb|------------------------------|
Bb|------------------------------|
Gb|------------------------------|
Db|-12---------------------------|
Ab|----14\12-10-12----10---------|
Eb|----------------12----10/22~~-|

End Solo



Riff 4
Guitar 1
eb|---------------------------------|
Bb|---------------------------------|
Gb|---------------------------------|
Db|---------------------------------|
Ab|---------------------------------|
Eb|-0-0--00-0-0--00-0-0--00-0-0--00-|
    * *  ** * *  ** * *  ** * *  **
eb|---------------------------------|
Bb|---------------------------------|
Gb|---------------------------------|
Db|---------------------------------|
Ab|-3-3--33-3-3--33-5-5--55-5-5--55-|
Eb|---------------------------------|
    * *  ** * *  ** * *  ** * *  **
eb|---------------------------------|
Bb|---------------------------------|
Gb|---------------------------------|
Db|---------------------------------|
Ab|---------------------------------|
Eb|-0-0--00-0-0--00-0-0--00-0-0--00-|
    * *  ** * *  ** * *  ** * *  **
eb|---------------------------------|
Bb|---------------------------------|
Gb|---------------------------------|
Db|---------------------------------|
Ab|---------------------------------|
Eb|-3-3--33-3-3--33-5-5--55-5-5--55-|
    * *  ** * *  ** * *  ** * *  **

Guitar 2
eb|------------------------------------------------------|
Bb|------------------------------------------------------|
Gb|------------------------------------------------------|
Db|------------------------------------------------------|
Ab|-7--777-9-10--9--7--5--5-3----333-/7--5----5-10-9--99-|
Eb|------------------------------------------------------|

eb|-------------------------------------------------------|
Bb|-------------------------------------------------------|
Gb|-------------------------------------------------------|
Db|-------------------------------------------------------|
Ab|-7--777-9-10--9--7--5--5-10----101010-12-9----9-10-9-5-|
Eb|-------------------------------------------------------|

Guitar 3
eb|-----------------------------------------------------|
Bb|-----------------------------------------------------|
Gb|-----------------------------------------------------|
Db|-5--555-7-9--7--5--4--4-2----222-/7--4----4-9-7--77--|
Ab|-----------------------------------------------------|
Eb|-----------------------------------------------------|

eb|-------------------------------------------------|
Bb|-------------------------------------------------|
Gb|-------------------------------------------------|
Db|-5--555-7-9--7--5--4--4-9----999-10-7----7-9-7-4-|
Ab|-------------------------------------------------|
Eb|-------------------------------------------------|



Play Riff 1  "With virtue as..."


Riff 2b
Guitar 1
eb|----0-----------------------------------------|
Bb|----0-----------------------------------------|
Gb|----------------------------------------------|
Db|----------------------------------------------|
Ab|-2-------7-7-7-7-5-3-5----5-7-0-3----3-0-5-7\-|
Eb|-0--------------------------------------------|
                                 *        *
     "So we make our..."
eb|------0-----------------------------------------|
Bb|------0-----------------------------------------|
Gb|------------------------------------------------|
Db|------------------------------------------------| ------|
Ab|-----------7-7-7-7-5-3-5----5-7-0-8----8-10-0-7-|       |
Eb|-000--------------------------------------------|       |
    ***                            *           *           |
    "...day..."                                            |--> Play 3x
eb|------0-----------------------------------------|       |
Bb|------0-----------------------------------------|       |
Gb|------------------------------------------------|       |
Db|------------------------------------------------| ------|
Ab|-----------7-7-7-7-5-3-5----5-7-0-3----3-0-5-7\-|
Eb|-000--------------------------------------------|
    ***                            *        *
     "So we make our..."
eb|------0-------------------------------------------|
Bb|------0-------------------------------------------|
Gb|--------------------------------------------------|
Db|--------------------------------------------------|
Ab|-----------7-7-7-7-5-3-5----5--7--8--8--10--8--7~-|
Eb|-000----------------------------------------------|
    ***
    "...day..."                            "...breath..."


Guitar 2
eb|----0-----------------------------------------|
Bb|----0-----------------------------------------|
Gb|----------------------------------------------|
Db|---------9-9-9-9-7-5-7----7-9-----------7-5\--|
Ab|-2-----------------------------7----7-0-------|
Eb|-0--------------------------------------------|
                                         *
eb|------0-----------------------------------------|
Bb|------0-----------------------------------------|
Gb|------------------------------------------------|
Db|-----------9-9-9-9-7-5-7----7-9--10----10-12-9\-| -----|
Ab|------------------------------------------------|      |
Eb|-000--------------------------------------------|      |
    ***                                                   |
eb|------0-----------------------------------------|      |--> Play 3x
Bb|------0-----------------------------------------|      |
Gb|------------------------------------------------|      |
Db|-----------9-9-9-9-7-5-7----7-9-----------7-5\--| -----|
Ab|---------------------------------7----7-0-------|
Eb|-000--------------------------------------------|
    ***                                    *
eb|------0------------------------------------------------------|
Bb|------0------------------------------------------------------|
Gb|-------------------------------------------------------------|
Db|-----------9-9-9-9-7-5-7----7----9----10----10----12--10--9~-|
Ab|-------------------------------------------------------------|
Eb|-000---------------------------------------------------------|
    ***


Guitar fills over out chorus:
Guitar 1
eb|--------------------------------|
Bb|--------------------------------|
Gb|-11-12-11-9------9---11-12-11-9-|
Db|---------------9---9------------|
Ab|--------------------------------|
Eb|--------------------------------|

eb|-----------------------------------|
Bb|-12----10--------10----------------|
Gb|-------------12--------12----11--9-|
Db|-----------------------------------|
Ab|-----------------------------------|
Eb|-----------------------------------|

Guitar 2
eb|--------------------------------|
Bb|-10-12-10-8------8---10-12-10-8-|
Gb|---------------9---9------------|
Db|--------------------------------|
Ab|--------------------------------|
Eb|--------------------------------|

eb|-10-----8---------8----------------|
Bb|-------------12--------12----10--8-|
Gb|-----------------------------------|
Db|-----------------------------------|
Ab|-----------------------------------|
Eb|-----------------------------------|



Ending:
Guitar 1
eb|-----------------|
Bb|-----------------|
Gb|-----------------|
Db|-5----10----9----|
Ab|-3-----8----7----|
Eb|-------8----7----|
  "...breath..."

Guitar 2
eb|--------------------16-17-19~~--(19)\-|
Bb|-12-13-17~----17-19-------------------|
Gb|--------------------------------------|
Db|--------------------------------------|
Ab|--------------------------------------|
Eb|--------------------------------------|

eb|-12-14-16~----16b17--14~---------|
Bb|----------------------------17~--|
Gb|---------------------------------|
Db|---------------------------------|
Ab|---------------------------------|
Eb|---------------------------------|

-----------------------------------------------------

3. WHEN THE EAGLE CRIES

Tuning: Eb

Riff 1 (12 string acoustic)
eb|--------------------------------|
Bb|-----------------------------0--|
Gb|-----------0---------------0----|
Db|-----4---4---4-------4---4------|
Ab|---2---2-------2---2---2--------|
Eb|-0---------------0--------------|

eb|--------------------------------|
Bb|-----------------------------0--|
Gb|-----------0---------------0----|
Db|-----4---4---4-------4---4------|
Ab|---2---2-------2---2---2--------|
Eb|-0---------------0--------------|

eb|-----------------------------|
Bb|-----------------------------|
Gb|------0------------2---------|
Db|---2-----2------4------4-----|
Ab|-3----------3-5-----------5--|
Eb|-----------------------------|



Riff 2 (Distortion)
Guitar 1
eb|---------------------|
Bb|---------------------|
Gb|---------------------|
Db|-------------2----2--|
Ab|-2----2----3-3--3-3--|
Eb|-0----0--------------|
              *    *
   "...cries..."
eb|-----------------------------|
Bb|-----------------------------|
Gb|-------------7----7--7-7-----|
Db|-4----4------5----5--5-5-----|
Ab|-5----5----0----0------------|
Eb|--------------------------00-|
              *    *         **
   "Blood will flow..."

Final chord:
eb|-----|
Bb|-----|
Gb|-----|
Db|-----|
Ab|--2--|
Eb|--0--|
   "...cries..."

Guitar 2
eb|--------------------------|
Bb|------12-10-----12-10-----|
Gb|-9----------12--------12--|
Db|--------------------------|
Ab|--------------------------|
Eb|--------------------------|

eb|-------------------------------|
Bb|-10------------------10--------|
Gb|----11-----------12------12-11-|
Db|-------12----------------------|
Ab|-------------------------------|
Eb|-------------------------------|

Final note:
eb|-----|
Bb|-----|
Gb|--9--|
Db|-----|
Ab|-----|
Eb|-----|

Guitar 3
eb|---------------------------|
Bb|-------15-13-12--15-13-12--|
Gb|-12------------------------|
Db|---------------------------|
Ab|---------------------------|
Eb|---------------------------|

eb|-------------------------------|
Bb|-13-10-----------12--13--12-10-|
Gb|-------11----------------------|
Db|-------------------------------|
Ab|-------------------------------|
Eb|-------------------------------|

Final note:
eb|------|
Bb|------|
Gb|--12--|
Db|------|
Ab|------|
Eb|------|



Play Riff 1   "Out of the ashes..."
Play Riff 2   "...cries..."



Riff 3 (Solo Rhythm)
eb|------------------------------|
Bb|------------------------------|
Gb|------------------------------|
Db|------------------------------|
Ab|-2------2--------2---2--------|
Eb|-0--0-0-0--0-0-3-3-3-3--3-3-0-|
       * *    * * *   *    * * *
eb|------------------------------|
Bb|------------------------------|
Gb|------------------------------|
Db|------------------------------|
Ab|-0------0--------5---2--------|
Eb|-2--2-2-2--2-2-3-3-3-3--3-3-0-|
       * *    * * *   *    * * *
eb|------------------------------|
Bb|------------------------------|
Gb|------------------------------|
Db|------------------------------|
Ab|-2------2--------2---2--------|
Eb|-0--0-0-0--0-0-3-3-3-3--3-3-0-|
       * *    * * *   *    * * *
eb|------------------------------|
Bb|------------------------------|
Gb|------------------------------|
Db|------------------------------|
Ab|-0------0--------5---2--------|
Eb|-2--2-2-2--2-2-3-3-3-3--3-3-0-|
       * *    * * *   *    * * *
eb|------------------------------|
Bb|------------------------------|
Gb|------------------------------|
Db|-2------2------2------2-------|
Ab|-3--3-3-3--3-3-3--3-3-3--3-33-|
Eb|------------------------------|
       * *    * *    * *    * **
eb|-----------------------------|
Bb|-----------------------------|
Gb|-----------------------------|
Db|-4------4-------(9)--(7)-----| <-- harmony guitar
Ab|-5--5-5-5--5-5--10----9------|
Eb|--------------------------00-|
       * *    * *            **


Solo
eb|-------------------------------------|
Bb|-------------------------------------|
Gb|-/9--11--12--9~----11--12--9--11--12-|
Db|-------------------------------------|
Ab|-------------------------------------|
Eb|-------------------------------------|

eb|------------------------|
Bb|-/15--13--12h13---------|
Gb|----------------14~---\-|
Db|------------------------|
Ab|------------------------|
Eb|------------------------|

eb|-----14-----15-----17-19b20r19-17-19~-|
Bb|-/15----/17----/19--------------------|
Gb|--------------------------------------|
Db|--------------------------------------|
Ab|--------------------------------------|
Eb|--------------------------------------|

eb|-17\15-17b19~--17b19-17-15-17b19-17~-15-|
Bb|----------------------------------------|
Gb|----------------------------------------|
Db|----------------------------------------|
Ab|----------------------------------------|
Eb|----------------------------------------|

eb|-20b22-20--19h20-17~--|
Bb|----------------------|
Gb|----------------------|
Db|----------------------|
Ab|----------------------|
Eb|----------------------|

Harmony Guitar comes in

Guitar 1
eb|---------------------------------|
Bb|-22b24--22b24r22-20-22-20-19-20~-|
Gb|---------------------------------|
Db|---------------------------------|
Ab|---------------------------------|
Eb|---------------------------------|

eb|----------------------------------------22~--22b24r22~--(22)\-|
Bb|-19-20-20~--19-20-20~--19-20-22~--19-20-----------------------|
Gb|--------------------------------------------------------------|
Db|--------------------------------------------------------------|
Ab|--------------------------------------------------------------|
Eb|--------------------------------------------------------------|

eb|-----14-15-14-----------------------------|
Bb|-/15----------15\12-10\7-8-7--------------|
Gb|-----------------------------7------------|
Db|-------------------------------7----------|
Ab|---------------------------------10-9-7~--|
Eb|------------------------------------------|

Guitar 2
eb|---------------------------------|
Bb|-19b20--19b20r19-17-19-17-15-17~-|
Gb|---------------------------------|
Db|---------------------------------|
Ab|---------------------------------|
Eb|---------------------------------|

eb|----------------------------------------19~--19b20r19~--(19)\-|
Bb|-15-17-17~--15-17-17~--15-17-19~--15-17-----------------------|
Gb|--------------------------------------------------------------|
Db|--------------------------------------------------------------|
Ab|--------------------------------------------------------------|
Eb|--------------------------------------------------------------|

eb|------------------------------------|
Bb|-----15-16-15-----------------------|
Gb|-/16----------16\12-11\7--[silent]--|
Db|------------------------------------|
Ab|------------------------------------|
Eb|------------------------------------|

End Solo


Play Riff 2   "...cries..."


Song fades out, background leads to be finished later.

---------------------------------------------------------------------

4. THE RECKONING (DON'T TREAD ON ME)

Tuning: Eb

Riff 1
Guitar 1
eb|-----7---8-----------------|
Bb|-------7------------7-8----|
Gb|------------------------9--|
Db|-9------(9)------9-----(9)-|
Ab|-7------(7)------7-----(7)-|
Eb|-0------(0)------0-----(0)-|

Guitar 2 (Comes in later)
eb|-------------------------------------|
Bb|-------------------------------------|
Gb|-------------------------------------|
Db|-------------999--------------101010-|
Ab|-------7-777------------7-777--------|
Eb|-0-000------------0-000--------------|
    * *** * *** ***  * *** * ***  * * *
   "Destiny's called us..."
eb|------------------------------------|
Bb|------------------------------------|
Gb|------------------------------------|
Db|-------------999--777--------999-9~-|
Ab|-------7-777----------101010-----a--|
Eb|-0-000------------------------------|
    * *** * *** ***  ***  * * * ***
   "This it's for blood..."



Riff 2
eb|------------------------------------------|
Bb|------------------------------------------|
Gb|------------------------------------------|
Db|-7/9-----7/9----------7/9-----7/9---------|
Ab|-5/7-----5/7---8-8-8--5/7-----5/7---8-8-8-|
Eb|-----0-0-----0-8-8-8------0-0-----0-8-8-8-|
        * *     * * * *      * *     * * * *
eb|------------------------------|
Bb|------------------------------|
Gb|------------------------------|
Db|-7/9-----7/9------------------|
Ab|-5/7-----5/7---8-8-8--8--7--5-|
Eb|-----0-0-----0-8-8-8--8--7--5-|
        * *     * * * *


Riff 3
eb|---------------------------------------|
Bb|---------------------------------------|
Gb|---------------------------------------|
Db|--------------------5------------------|
Ab|-5-7777-7-7777-7-77---7777-7-7777-7-77-|
Eb|---------------------------------------|
      ****   ****   **   ****   ****   **
eb|----------------------------------|
Bb|----------------------------------|
Gb|----------------------------------|
Db|--------------------5-----7-------|
Ab|-5-7777-7-7777-7-77---875---------|
Eb|----------------------------6-5-3-|
      ****   ****   **   ***   * *

Harmony guitar
eb|---------------------------------------|
Bb|---------------------------------------|
Gb|--------------------4------------------|
Db|-4-5555-5-5555-5-55---5555-5-5555-5-55-|
Ab|---------------------------------------|
Eb|---------------------------------------|
      ****   ****   **   ****   ****   **
eb|----------------------------------|
Bb|----------------------------------|
Gb|--------------------4-----5-------|
Db|-4-5555-5-5555-5-55---754---------|
Ab|----------------------------5-4-2-|
Eb|----------------------------------|
      ****   ****   **   ***   * *



Play Riff 2   "You went too far this time..."
Play Riff 1   "Destiny's called us..."
Play Riff 2   "The hour's close at hand..."
Play Riff 1   "Destiny's called us..."
Play Riff 3   w/o harmony guitar

Ending chord to riff 3:
eb|-----|
Bb|-----|
Gb|-----|
Db|-----|
Ab|--2--|
Eb|--0--|


Interlude:

Guitar 1 (Clean)
eb|---------------------------------|
Bb|---------------------------------|
Gb|---------------------------------|
Db|-----9-------9-------9-------9---|
Ab|---7---7---7---7---7---7---7---7-|
Eb|-0-------0-------0-------0-------|
    * * * * * * * * * * * * * * * *
eb|-------------------------------------|
Bb|-------------------------------------|
Gb|-------------------------------------|
Db|-----10-------10-------10-------10---|
Ab|---7----7---7----7---7----7---7----7-|
Eb|-0--------0--------0--------0--------|
    * *  * * * *  * * * *  * * * *  * *
eb|---------------------------------|
Bb|---------------------------------|
Gb|---------------------------------|
Db|-----9-------9-------9-------9---|
Ab|---7---7---7---7---7---7---7---7-|
Eb|-0-------0-------0-------0-------|
    * * * * * * * * * * * * * * * *
eb|---------------------------------|
Bb|---------------------------------|
Gb|---------------------------------|
Db|-----7-------7-------7-------7---|
Ab|---7---7---7---7---7---7---7---7-|
Eb|-0-------0-------0-------0-------|
    * * * * * * * * * * * * * * * *

Guitar 2 (Clean with reverb)
eb|---------------------------------|
Bb|---------------------------------|
Gb|---------------------------------|
Db|-----9----(9)--------10----(10)--|
Ab|---7---------------7-------------|
Eb|-0---------------0---------------|

eb|-------------------------------|
Bb|-------------------------------|
Gb|-------------------------------|
Db|-----9----(9)--------7----(7)--|
Ab|---7---------------7-----------|
Eb|-0---------------0-------------|


The following guitars come in later:

Guitar 3 (Fades in, harmony guitar in () )
eb|------------------------------------|
Bb|------------------------------------|
Gb|-(11)------(12)------(11)------(9)--|
Db|---9--------10---------9--------7---|
Ab|------------------------------------|
Eb|------------------------------------|


Guitar 4
eb|-------------------------|
Bb|---10-12----------10-13--|
Gb|-9--------------9--------|
Db|-------------------------|
Ab|-------------------------|
Eb|-------------------------|

eb|---------------------10--|
Bb|---10-12----------12-----|
Gb|-9--------------9--------|
Db|-------------------------|
Ab|-------------------------|
Eb|-------------------------|


End interlude


Play Riff 3
Play Riff 2   "If it was up to me..."
Play Riff 1   "Destiny's called us..."

Ending
eb|-----|
Bb|-----|
Gb|-----|
Db|-----|
Ab|--2--|
Eb|--0--|

-------------------------------------------------------------

5. GREENFACE
Tuning: D (drop all strings a whole step)


Riff 1
Guitar 1
d|-----------------------------------|
A|-----------------------------------|
F|-----------------------------------|
C|-10-----9---------10-----9-----7---|
G|--8-----7----------8-----7-----5---|
D|----0-0---0-0-0-0----0-0---0-0---0-|
      * *   * * * *    * *   * *   *
d|----------------------------------|
A|----------------------------------|
F|----------------------------------|
C|-10-----9-------------------------|
G|--8-----7---------2-2-----2-2-----|
D|----0-0---0-0-0-0-0-0-0-0-0-0-0-0-|
      * *   * * * * * * * * * * * *

Guitar 2 (Some effect used on last four chords)
d|-----------------------------------|
A|-----------------------------------|
F|-----------------------------------|
C|-10-----9---------10-----9-----7---|
G|--8-----7----------8-----7-----5---|
D|----0-0---0-0-0-0----0-0---0-0---0-|
      * *   * * * *    * *   * *   *
d|------------------0-0-----0-0-----|
A|------------------0-0-----0-0-----|
F|----------------------------------|
C|-10-----9-------------------------|
G|--8-----7-------------------------|
D|----0-0---0-0-0-0-----0-0-----0-0-|
      * *   * * * *     * *     * *


Riff 2
d|---------------------------------------0--------0-|
A|---------------------------------------0--------0-|
F|---------------------------------------x--------x-|
C|------------------------------0-----0--2--------2-|
G|-2-2-2-0-0---0--------0-----2-----0----2--------2-|
D|-3-3-3-2-2-0-1--------1-333-----2------0--------0-|
   * * * * * *            *** * * * * *
d|---------------------------------------0----------------|
A|---------------------------------------0----------------|
F|---------------------------------------x----------------|
C|------------------------------0-----0--2----------------|
G|-2-2-2-0-0---0--------0-----2-----0----2--------3h5p3p0-|
D|-3-3-3-2-2-0-1--------1-333-----2------0----3h5---------|
   * * * * * *            *** * * * * *



Riff 3
d|-----------------------------------|
A|-----------------------------------|
F|-----------------------------------|
C|-----------------------------------|
G|-----------------------------------|
D|-0-000-0-000-00000-00000-000-00000-|
   * *** * *** ***** ***** *** *****
  "A warrior down to..."
d|---------------------------------|
A|---------------------------------|
F|---------------------------------|
C|---------------------------------|
G|----------------3--------3h5p3p0-|
D|-0-0-0-000-0000-0----3h5---------|
   * * * *** ****
  "...depths of my soul..."



Riff 4
d|--------------------------|
A|--------------------------|
F|--------------------------|
C|--------------------------|
G|-3------------5--------7\-|
D|-1--1-1-1-1-1-3--3-3-3-5\-|
      * * * * *    * * *
   "On land, in the air..."
d|---------------------------------|
A|---------------------------------|
F|---------------------------------|
C|--------9-9----10-10-----12-10---|
G|-2------7-7-----7--7------7--7---|
D|-0--0-0-----0-0------0-0-------0-|
      * *     * *      * *       *
   "...sea..."
d|--------------------------|
A|--------------------------|
F|--------------------------|
C|--------------------------|
G|-3------------5--------7\-|
D|-1--1-1-1-1-1-3--3-3-3-5\-|
      * * * * *    * * *
   "On danger..."



Play Riff 3   "My war face the last..."
Play Riff 4   "On land, in the air..."


Riff 5
d|----------------------------------|
A|----------------------------------|
F|----------------------------------|
C|----------------------------------|
G|--------------------------3h5p3p0-|
D|-0-000-000-0000000----3h5---------|
   * *** *** *******


Play Riff 1   "Ahh, greenface!"
Play Riff 2


Riff 6 (Solo Rhythm)
d|----------------------------------------|
A|----------------------------------------|
F|----------------------------------------|
C|-10-----9-------------------------------|
G|--8-----7-----------------------3h5p3p0-|
D|----000---000-0-000-000-000-3h5---------|
      ***   *** * *** *** ***
d|--------------------------|
A|--------------------------|
F|--------------------------|
C|-10-----9-----12----7--10-|
G|--8-----7-----10----5---8-|
D|----000---000-------------|
      ***   ***
d|----------------------------------------|
A|----------------------------------------|
F|----------------------------------------|
C|-10-----9-------------------------------|
G|--8-----7-----------------------3h5p3p0-|
D|----000---000-0-000-000-000-3h5---------|
      ***   *** * *** *** ***
d|----------------------------------------|
A|----------------------------------------|
F|----------------------------------------|
C|-10-----9-------------------------------|
G|--8-----7-----------------------3h5p3p0-|
D|----000---000-0-000-000-000-3h5---------|
      ***   *** * *** *** ***
d|--------------------------|
A|--------------------------|
F|--------------------------|
C|-10-----9-----12----7--10-|
G|--8-----7-----10----5---8-|
D|----000---000-------------|
      ***   ***
d|----------------------------------------|
A|----------------------------------------|
F|----------------------------------------|
C|-10-----9-------------------------------|
G|--8-----7-----------------------3h5p3p0-|
D|----000---000-0-000-000-000-3h5---------|
      ***   *** * *** *** ***


Solo
d|------------------------------|
A|------------------------------|
F|-------7h8p7------------------|
C|---6-9-a-----10-9-7-9--6------|
G|-7------------a-a-a-a--a-8-7~-|
D|-------------------------a-a--|

d|---------------------------------------------------|
A|-12h13-12p10---------------------------------------|
F|-------------12-10-9-------------------------------|
C|---------------------12-10-9-----------------------|
G|-----------------------------12-10-8---------------|
D|-------------------------------------12-10-8-7b8r7-|

d|--------------------------------------------------|
A|----------------9-12-9h12-12p10p9-13-12--10--9-9~-|
F|--------------9--------------------------------9~-|
C|-9b10r9~----9-------------------------------------|
G|--------------------------------------------------|
D|--------------------------------------------------|

d|--------------------------16-17-19/20-17-|
A|------------------------17---------------|
F|-9h10p9----9----------16-----------------|
C|--------12---12\----18-------------------|
G|-----------------/19---------------------|
D|-----------------------------------------|

d|-19-----------16------------------|
A|----15-13-12-----18--17~----(17)\-|
F|---------------------16~----(16)\-|
C|----------------------------------|
G|----------------------------------|
D|----------------------------------|

d|--------------17-20-19\------------|
A|------------18----------13---------|
F|----------17--------------16-------|
C|--------18------------------15-----|
G|------19----------------------14---|
D|-16h19--------------------------15-|

d|------------------------------------------------------|
A|-13b15-13-15p13-13\12----12-13-12b13r12-12------------|
F|----------------------14-----------------a--9\-7b9r7~-|
C|------------------------------------------------------|
G|------------------------------------------------------|
D|------------------------------------------------------|

d|----------17-19-20-19-20~~--|
A|-17-18-20-------------------|
F|----------------------------|
C|----------------------------|
G|----------------------------|
D|----------------------------|

End Solo


Play Riff 4  "On land, in the air..."


Guitar fill
d|------------------16----12----------------12-----------|
A|------------12-15----15----12-15-------15----15-17b19~-|
F|-14b16r14~-----------------------14b16-----------------|
C|-------------------------------------------------------|
G|-------------------------------------------------------|
D|-------------------------------------------------------|

End guitar fill


Play Riff 5  "...meat..."

Guitar fill
d|-/16-13-12-10-13-12-10----------------------------|
A|-----------------------13-12-10-------------------|
F|--------------------------------13-10-9-----------|
C|----------------------------------------12-10-9~~-|
G|--------------------------------------------------|
D|--------------------------------------------------|

End guitar fill


Play Riff 3  "Lagoons deep in jungles..."
Play Riff 4  "On land, in the air..."
Play Riff 5  "...meat..."
Play Riff 1  "Ahh, greenface!"


Ending:
d|---------------------------------------0--------0-|
A|---------------------------------------0--------0-|
F|---------------------------------------x--------x-|
C|------------------------------0-----0--2--------2-|
G|-2-2-2-0-0---0--------0-----2-----0----2--------2-|
D|-3-3-3-2-2-0-1--------1-333-----2------0--------0-|
   * * * * * *            *** * * * * *
d|---------------------------------------0--|
A|---------------------------------------0--|
F|---------------------------------------x--|
C|------------------------------0-----0--2--|
G|-2-2-2-0-0---0--------0-----2-----0----2--|
D|-3-3-3-2-2-0-1--------1-333-----2------0--|
   * * * * * *            *** * * * * *

---------------------------------------------------------

6. ATTILA
Tuning: Eb


Intro

Guitar 1
eb|----------------------------------------------|
Bb|----------------------------------------------|
Gb|----------------------------------------------|
Db|-2--2-0-2-------------------------------------|
Ab|-2--2-0-2----------------3--------------------|
Eb|-------------0-2-3-5-3-2----1-1----1-3-5-3-1--|
       * *      * * *   * *    *      * *   *

Final time
eb|-----------|
Bb|-----------|
Gb|-----------|
Db|-2--2-0-2--|
Ab|-2--2-0-2--|
Eb|-----------|
       * *

Guitar 2
eb|---------------------------------------------------|
Bb|---------------------------------------------------|
Gb|---------------------------------------------------|
Db|-9--9-7-9-----------7------10--------------7-------|
Ab|-7--7-5-7----7-9-10---10-9-----8-8----8-10---10-8--|
Eb|---------------------------------------------------|
       * *      * *  *    * *     *      *  *    *

Final time
eb|-----------|
Bb|-----------|
Gb|-----------|
Db|-9--9-7-9--|
Ab|-7--7-5-7--|
Eb|-----------|
       * *

Guitar 3
eb|-----------------------------------------------------------|
Bb|---------------------10-------13-----------------10--------|
Gb|-9--9-7-9----9-11-12----12-11-----10-10----10-12----12-10--|
Db|-----------------------------------------------------------|
Ab|-----------------------------------------------------------|
Eb|-----------------------------------------------------------|

Final time
eb|-----------|
Bb|-----------|
Gb|-9--9-7-9--|
Db|-----------|
Ab|-----------|
Eb|-----------|


Guitar 4
eb|--------------------------17-------20-----------------17--------|
Bb|-17--17-15-17----17-19-20----20-19-----18-18----18-20----20-18--|
Gb|----------------------------------------------------------------|
Db|----------------------------------------------------------------|
Ab|----------------------------------------------------------------|
Eb|----------------------------------------------------------------|

Final time
eb|---------------|
Bb|-17--17-15-17--|
Gb|---------------|
Db|---------------|
Ab|---------------|
Eb|---------------|


Guitar 5 (Comes in later)
eb|----------------------------------------|
Bb|-------12-----10---10----------10----10-|
Gb|-9-9-9----9-9----9----9-9-9-12----12----|
Db|----------------------------------------|
Ab|----------------------------------------|
Eb|----------------------------------------|
      * *    * *    *      * *
eb|-------------------------------------------------|
Bb|----------10----------------------------------10-|
Gb|-10-10-10----10-10-12-10-12-10-10-10-12-10-12----|
Db|-------------------------------------------------|
Ab|-------------------------------------------------|
Eb|-------------------------------------------------|
        *  *     *  *     *        *  *

End intro


Riff 1
Guitar 1
eb|--------------------------------|
Bb|--------------------------------|
Gb|--------------------------------|
Db|--------------------------------|
Ab|-2-----------------------9-7----|
Eb|-0--0-000-000-000-000-00-7-5-00-|
       * *** *** *** *** **     **
eb|--------------------------------|
Bb|--------------------------------|
Gb|--------------------------------|
Db|--------------------------------|
Ab|-5-----------------------7-9----|
Eb|-3--3-333-333-333-333-00-5-7-00-|
       * *** *** *** *** **     **
eb|--------------------------------|
Bb|--------------------------------|
Gb|--------------------------------|
Db|--------------------------------|
Ab|-3-----------------------5-3----|
Eb|-1--1-111-111-111-111-00-3-1-00-|
       * *** *** *** *** **     **
eb|---------------------------------|
Bb|---------------------------------|
Gb|---------------------------------|
Db|---------------------7-----------|
Ab|-2--------------5555-5-------3-2-|
Eb|-0--0-000-000-0---------1111-1-0-|
       * *** *** * ****    ****

Guitar 2
eb|----------------------------------|
Bb|----------------------------------|
Gb|----------------------------------|
Db|-9-----------------------16-14----|
Ab|-7--7-777-777-777-777-00-14-12-00-|
Eb|----------------------------------|
       * *** *** *** *** **       **
eb|------------------------------------------------|
Bb|------------------------------------------------|
Gb|------------------------------------------------|
Db|-12------------------------------------14-16----|
Ab|-10--10-101010-101010-101010-101010-00-12-14-00-|
Eb|------------------------------------------------|
        *   * * *  * * *  * * *  * * * **       **
eb|-----------------------------------|
Bb|-----------------------------------|
Gb|-----------------------------------|
Db|-10-----------------------12-10----|
Ab|--8--8-888-888-888-888-00-10--8-00-|
Eb|-----------------------------------|
        * *** *** *** *** **       **
eb|----------------------------------|
Bb|----------------------------------|
Gb|----------------------------------|
Db|-9-------------------7-------10\9-|
Ab|-7--7-777-777-0-5555-5--8888--8\7-|
Eb|----------------------------------|
       * *** *** * ****    ****


Play Riff 1  "He's ruled them..."


Riff 2
Guitar 1
eb|------------------------------------------|
Bb|------------------------------------------|
Gb|------------------------------------------|
Db|-2--------7--5--------7--5-------------2--|
Ab|-2--------7--5--------7--5------5------2--|
Eb|-0--------5--3--------5--3----0-2----0-0--|

Guitar 2
eb|-------------------------------------|
Bb|-------------------------------------|
Gb|-------------------------------------|
Db|-14-14141414-19-14141414-17-14141414-| ---|
Ab|-------------------------------------|    |
Eb|-------------------------------------|    |
        * * * *     * * * *     * * * *      |
eb|-----------------------------|            |--> Play 2x
Bb|-----------------------------|            |
Gb|-----------------------------|            |
Db|-16-14141414-17-1414-19-1414-| -----------|
Ab|-----------------------------|
Eb|-----------------------------|
        * * * *     * *     * *

eb|---------------------------------|
Bb|---------------------------------|
Gb|---------------------------------|
Db|-17-14141414-16-14141414-14-1414-|
Ab|---------------------------------|
Eb|---------------------------------|
        * * * *     * * * *     * *
eb|---------------------------------|
Bb|---------------------------------|
Gb|---------------------------------|
Db|-17-14141414-16-14141414-14-1414-|
Ab|---------------------------------|
Eb|---------------------------------|
        * * * *     * * * *     * *
eb|-------------------------------------|
Bb|-------------------------------------|
Gb|-------------------------------------|
Db|-14-14141414-19-14141414-17-14141414-|
Ab|-------------------------------------|
Eb|-------------------------------------|
        * * * *     * * * *     * * * *
eb|-------------------------|
Bb|-------------------------|
Gb|-------------------------|
Db|-16-14141414-17-1414-19\-|
Ab|-------------------------|
Eb|-------------------------|
        * * * *     * *


Play Riff 1   "Alliance has been made..."
Play Riff 2   "Hell awaits..."
NOTE: Guitar 2 only ends with slide when that bar
is the ending bar.


Riff 3
Guitar 1
eb|-------------------------------------------|
Bb|-------------------------------------------|
Gb|-------------------------------------------|
Db|-------------------------------------------|
Ab|-7-7777-12-7777-10-7777-9-7777-10-77-12-77-|
Eb|-------------------------------------------|
      ****    ****    ****   ****    **    **
   "Path of fire..."
eb|-------------------------------------------|
Bb|-------------------------------------------|
Gb|-------------------------------------------|
Db|-------------------------------------------|
Ab|-7-7777-12-7777-10-7777-9-7777-10-77-12-77-|
Eb|-------------------------------------------|
      ****    ****    ****   ****    **    **
   "Cities burn..."
eb|-----------------------------------------|
eb|-----------------------------------------|
Bb|-----------------------------------------|
Gb|-----------------------------------------|
Db|-----------------------------------------|
Ab|-10-7777-9-7777-7-77-10-7777-9-7777-7-77-|
Eb|-----------------------------------------|
       ****   ****   **    ****   ****   **
   "Attila's fate..."
eb|-------------------------------------------|
Bb|-------------------------------------------|
Gb|-------------------------------------------|
Db|-------------------------------------------|
Ab|-7-7777-12-7777-10-7777-9-7777-10-77-12-77-|
Eb|-------------------------------------------|
      ****    ****    ****   ****    **    **
   "He will come to..."


Guitar 2
eb|-----------------------------------------|
Bb|-----------------------------------------|
Gb|-----------------------------------------|
Db|-5-5555-10-5555-9-5555-7-5555-9-55-10-55-|
Ab|-----------------------------------------|
Eb|-----------------------------------------|
      ****    ****   ****   ****   **    **
eb|-----------------------------------------|
Bb|-----------------------------------------|
Gb|-----------------------------------------|
Db|-5-5555-10-5555-9-5555-7-5555-9-55-10-55-|
Ab|-----------------------------------------|
Eb|-----------------------------------------|
      ****    ****   ****   ****   **    **
eb|---------------------------------------|
Bb|---------------------------------------|
Gb|---------------------------------------|
Db|-9-5555-7-5555-5-55-9-5555-7-5555-5-55-|
Ab|---------------------------------------|
Eb|---------------------------------------|
      ****   ****   **   ****   ****   **
eb|-----------------------------------------|
Bb|-----------------------------------------|
Gb|-----------------------------------------|
Db|-5-5555-10-5555-9-5555-7-5555-9-55-10-55-|
Ab|-----------------------------------------|
Eb|-----------------------------------------|
      ****    ****   ****   ****   **    **




Riff 3a
Guitar 1
eb|--------------------------------------------|
Bb|--------------------------------------------|
Gb|--------------------------------------------|
Db|--------------------------------------------|
Ab|-9-9999-14-9999-12-9999-11-9999-12-99-14-99-|
Eb|--------------------------------------------|
      ****    ****    ****    ****    **    **
   "Archers stand at..."
eb|--------------------------------------------|
Bb|--------------------------------------------|
Gb|--------------------------------------------|
Db|--------------------------------------------|
Ab|-9-9999-14-9999-12-9999-11-9999-12-99-14-99-|
Eb|--------------------------------------------|
      ****    ****    ****    ****    **    **
   "Centurions all..."
eb|-------------------------------------------|
Bb|-------------------------------------------|
Gb|-------------------------------------------|
Db|-------------------------------------------|
Ab|-12-9999-11-9999-9-99-12-9999-11-9999-9-99-|
Eb|-------------------------------------------|
       ****    ****   **    ****    ****   **
   "Keep to your lines..."
eb|--------------------------------------------|
Bb|--------------------------------------------|
Gb|--------------------------------------------|
Db|--------------------------------------------|
Ab|-9-9999-14-9999-12-9999-11-9999-12-99-14-99-|
Eb|--------------------------------------------|
      ****    ****    ****    ****    **    **
   "...Mongul's sure to falter..."


Guitar 2
eb|-------------------------------------------|
Bb|-------------------------------------------|
Gb|-------------------------------------------|
Db|-7-7777-12-7777-11-7777-9-7777-11-77-12-77-|
Ab|-------------------------------------------|
Eb|-------------------------------------------|
      ****    ****    ****   ****    **    **
eb|-------------------------------------------|
Bb|-------------------------------------------|
Gb|-------------------------------------------|
Db|-7-7777-12-7777-11-7777-9-7777-11-77-12-77-|
Ab|-------------------------------------------|
Eb|-------------------------------------------|
      ****    ****    ****   ****    **    **
eb|-----------------------------------------|
Bb|-----------------------------------------|
Gb|-----------------------------------------|
Db|-11-7777-9-7777-7-77-11-7777-9-7777-7-77-|
Ab|-----------------------------------------|
Eb|-----------------------------------------|
       ****   ****   **    ****   ****   **
eb|-------------------------------------------|
Bb|-------------------------------------------|
Gb|-------------------------------------------|
Db|-7-7777-12-7777-11-7777-9-7777-11-77-12-77-|
Ab|-------------------------------------------|
Eb|-------------------------------------------|
      ****    ****    ****   ****    **    **


Riff 3b
Guitar 1
eb|-----------------------------------------------------------------|
Bb|-----------------------------------------------------------------|
Gb|-----------------------------------------------------------------|
Db|-----------------------------------------------------------------|
Ab|-11-11111111-16-11111111-14-11111111-13-11111111-14-1111-16-1111-|
Eb|-----------------------------------------------------------------|
        * * * *     * * * *     * * * *     * * * *     * *     * *
   "We will surely..."
eb|-----------------------------------------------------------------|
Bb|-----------------------------------------------------------------|
Gb|-----------------------------------------------------------------|
Db|-----------------------------------------------------------------|
Ab|-11-11111111-16-11111111-14-11111111-13-11111111-14-1111-16-1111-|
Eb|-----------------------------------------------------------------|
        * * * *     * * * *     * * * *     * * * *     * *     * *
   "We will overtake..."
eb|-----------------------------------------------------------------|
Bb|-----------------------------------------------------------------|
Gb|-----------------------------------------------------------------|
Db|-----------------------------------------------------------------|
Ab|-14-11111111-13-11111111-11-1111-14-11111111-13-11111111-11-1111-|
Eb|-----------------------------------------------------------------|
        * * * *     * * * *     * *     * * * *     * * * *     * *
   "Fight till our..."
eb|-----------------------------------------------------------------|
Bb|-----------------------------------------------------------------|
Gb|-----------------------------------------------------------------|
Db|-----------------------------------------------------------------|
Ab|-11-11111111-16-11111111-14-11111111-13-11111111-14-1111-16-1111-|
Eb|-----------------------------------------------------------------|
        * * * *     * * * *     * * * *     * * * *     * *     * *
   "...Christians devastation..."


Guitar 2
eb|--------------------------------------------|
Bb|--------------------------------------------|
Gb|--------------------------------------------|
Db|-9-9999-1
Добавлено: 09.05.2012
Другие материалы по этой песне:
  • Аккорды и текст

Страница создана 09.05.2012
http://primanota.ru/iced-earth/glorious-burden-album-chords.htm
Привет, Гость.
Предлагаем пройти революционный курс по гитаре.
Подарок от PrimaNota.Ru, забирай!